ISO-10303-21;
HEADER;
/* Generated by software containing ST-Developer
 * from STEP Tools, Inc. (www.steptools.com) 
 */

FILE_DESCRIPTION(
/* description */ (''),
/* implementation_level */ '2;1');

FILE_NAME(
/* name */ 
'C:\\Repos\\Nomist\\mtbeclone\\mechanical\\Manufacturing\\KitBearingPr
ess\\KitBearingPress.ipt.step',
/* time_stamp */ '2021-01-27T00:08:59-05:00',
/* author */ ('Phil'),
/* organization */ (''),
/* preprocessor_version */ 'ST-DEVELOPER v18.1',
/* originating_system */ 'Autodesk Inventor 2020',
/* authorisation */ '');

FILE_SCHEMA (('AUTOMOTIVE_DESIGN { 1 0 10303 214 3 1 1 }'));
ENDSEC;

DATA;
#10=MECHANICAL_DESIGN_GEOMETRIC_PRESENTATION_REPRESENTATION('',(#13,#14),
#321);
#11=SHAPE_REPRESENTATION_RELATIONSHIP('SRR','None',#328,#12);
#12=ADVANCED_BREP_SHAPE_REPRESENTATION('',(#15,#16),#320);
#13=STYLED_ITEM('',(#337),#15);
#14=STYLED_ITEM('',(#337),#16);
#15=MANIFOLD_SOLID_BREP('Bottom',#166);
#16=MANIFOLD_SOLID_BREP('Top',#167);
#17=LINE('',#282,#22);
#18=LINE('',#288,#23);
#19=LINE('',#294,#24);
#20=LINE('',#306,#25);
#21=LINE('',#315,#26);
#22=VECTOR('',#225,5.);
#23=VECTOR('',#232,3.15);
#24=VECTOR('',#239,1.75);
#25=VECTOR('',#256,5.);
#26=VECTOR('',#267,1.75);
#27=CYLINDRICAL_SURFACE('',#191,5.);
#28=CYLINDRICAL_SURFACE('',#194,3.15);
#29=CYLINDRICAL_SURFACE('',#196,1.75);
#30=CYLINDRICAL_SURFACE('',#205,5.);
#31=CYLINDRICAL_SURFACE('',#210,1.75);
#32=FACE_BOUND('',#48,.T.);
#33=FACE_BOUND('',#53,.T.);
#34=FACE_BOUND('',#61,.T.);
#35=FACE_OUTER_BOUND('',#47,.T.);
#36=FACE_OUTER_BOUND('',#49,.T.);
#37=FACE_OUTER_BOUND('',#50,.T.);
#38=FACE_OUTER_BOUND('',#51,.T.);
#39=FACE_OUTER_BOUND('',#52,.T.);
#40=FACE_OUTER_BOUND('',#54,.T.);
#41=FACE_OUTER_BOUND('',#55,.T.);
#42=FACE_OUTER_BOUND('',#56,.T.);
#43=FACE_OUTER_BOUND('',#57,.T.);
#44=FACE_OUTER_BOUND('',#58,.T.);
#45=FACE_OUTER_BOUND('',#59,.T.);
#46=FACE_OUTER_BOUND('',#60,.T.);
#47=EDGE_LOOP('',(#109,#110));
#48=EDGE_LOOP('',(#111));
#49=EDGE_LOOP('',(#112,#113,#114,#115,#116,#117));
#50=EDGE_LOOP('',(#118,#119,#120,#121));
#51=EDGE_LOOP('',(#122,#123,#124,#125));
#52=EDGE_LOOP('',(#126));
#53=EDGE_LOOP('',(#127));
#54=EDGE_LOOP('',(#128));
#55=EDGE_LOOP('',(#129,#130));
#56=EDGE_LOOP('',(#131,#132));
#57=EDGE_LOOP('',(#133,#134,#135,#136,#137,#138));
#58=EDGE_LOOP('',(#139));
#59=EDGE_LOOP('',(#140,#141,#142,#143));
#60=EDGE_LOOP('',(#144,#145));
#61=EDGE_LOOP('',(#146));
#62=CIRCLE('',#188,5.);
#63=CIRCLE('',#189,5.);
#64=CIRCLE('',#190,3.15);
#65=CIRCLE('',#192,5.);
#66=CIRCLE('',#193,5.);
#67=CIRCLE('',#195,3.15);
#68=CIRCLE('',#197,1.75);
#69=CIRCLE('',#198,1.75);
#70=CIRCLE('',#203,5.);
#71=CIRCLE('',#204,5.);
#72=CIRCLE('',#206,5.);
#73=CIRCLE('',#207,5.);
#74=CIRCLE('',#209,1.75);
#75=CIRCLE('',#211,1.75);
#76=VERTEX_POINT('',#274);
#77=VERTEX_POINT('',#275);
#78=VERTEX_POINT('',#278);
#79=VERTEX_POINT('',#281);
#80=VERTEX_POINT('',#283);
#81=VERTEX_POINT('',#287);
#82=VERTEX_POINT('',#291);
#83=VERTEX_POINT('',#293);
#84=VERTEX_POINT('',#300);
#85=VERTEX_POINT('',#301);
#86=VERTEX_POINT('',#305);
#87=VERTEX_POINT('',#307);
#88=VERTEX_POINT('',#311);
#89=VERTEX_POINT('',#314);
#90=EDGE_CURVE('',#76,#77,#62,.T.);
#91=EDGE_CURVE('',#77,#76,#63,.T.);
#92=EDGE_CURVE('',#78,#78,#64,.T.);
#93=EDGE_CURVE('',#77,#79,#17,.T.);
#94=EDGE_CURVE('',#79,#80,#65,.T.);
#95=EDGE_CURVE('',#80,#79,#66,.T.);
#96=EDGE_CURVE('',#78,#81,#18,.T.);
#97=EDGE_CURVE('',#81,#81,#67,.T.);
#98=EDGE_CURVE('',#82,#82,#68,.T.);
#99=EDGE_CURVE('',#82,#83,#19,.T.);
#100=EDGE_CURVE('',#83,#83,#69,.T.);
#101=EDGE_CURVE('',#84,#85,#70,.T.);
#102=EDGE_CURVE('',#85,#84,#71,.T.);
#103=EDGE_CURVE('',#85,#86,#20,.T.);
#104=EDGE_CURVE('',#86,#87,#72,.T.);
#105=EDGE_CURVE('',#87,#86,#73,.T.);
#106=EDGE_CURVE('',#88,#88,#74,.T.);
#107=EDGE_CURVE('',#88,#89,#21,.T.);
#108=EDGE_CURVE('',#89,#89,#75,.T.);
#109=ORIENTED_EDGE('',*,*,#90,.F.);
#110=ORIENTED_EDGE('',*,*,#91,.F.);
#111=ORIENTED_EDGE('',*,*,#92,.T.);
#112=ORIENTED_EDGE('',*,*,#90,.T.);
#113=ORIENTED_EDGE('',*,*,#93,.T.);
#114=ORIENTED_EDGE('',*,*,#94,.T.);
#115=ORIENTED_EDGE('',*,*,#95,.T.);
#116=ORIENTED_EDGE('',*,*,#93,.F.);
#117=ORIENTED_EDGE('',*,*,#91,.T.);
#118=ORIENTED_EDGE('',*,*,#92,.F.);
#119=ORIENTED_EDGE('',*,*,#96,.T.);
#120=ORIENTED_EDGE('',*,*,#97,.F.);
#121=ORIENTED_EDGE('',*,*,#96,.F.);
#122=ORIENTED_EDGE('',*,*,#98,.F.);
#123=ORIENTED_EDGE('',*,*,#99,.T.);
#124=ORIENTED_EDGE('',*,*,#100,.F.);
#125=ORIENTED_EDGE('',*,*,#99,.F.);
#126=ORIENTED_EDGE('',*,*,#97,.T.);
#127=ORIENTED_EDGE('',*,*,#98,.T.);
#128=ORIENTED_EDGE('',*,*,#100,.T.);
#129=ORIENTED_EDGE('',*,*,#95,.F.);
#130=ORIENTED_EDGE('',*,*,#94,.F.);
#131=ORIENTED_EDGE('',*,*,#101,.F.);
#132=ORIENTED_EDGE('',*,*,#102,.F.);
#133=ORIENTED_EDGE('',*,*,#101,.T.);
#134=ORIENTED_EDGE('',*,*,#103,.T.);
#135=ORIENTED_EDGE('',*,*,#104,.T.);
#136=ORIENTED_EDGE('',*,*,#105,.T.);
#137=ORIENTED_EDGE('',*,*,#103,.F.);
#138=ORIENTED_EDGE('',*,*,#102,.T.);
#139=ORIENTED_EDGE('',*,*,#106,.T.);
#140=ORIENTED_EDGE('',*,*,#106,.F.);
#141=ORIENTED_EDGE('',*,*,#107,.T.);
#142=ORIENTED_EDGE('',*,*,#108,.T.);
#143=ORIENTED_EDGE('',*,*,#107,.F.);
#144=ORIENTED_EDGE('',*,*,#105,.F.);
#145=ORIENTED_EDGE('',*,*,#104,.F.);
#146=ORIENTED_EDGE('',*,*,#108,.F.);
#147=PLANE('',#187);
#148=PLANE('',#199);
#149=PLANE('',#200);
#150=PLANE('',#201);
#151=PLANE('',#202);
#152=PLANE('',#208);
#153=PLANE('',#212);
#154=ADVANCED_FACE('',(#35,#32),#147,.T.);
#155=ADVANCED_FACE('',(#36),#27,.T.);
#156=ADVANCED_FACE('',(#37),#28,.F.);
#157=ADVANCED_FACE('',(#38),#29,.F.);
#158=ADVANCED_FACE('',(#39,#33),#148,.T.);
#159=ADVANCED_FACE('',(#40),#149,.T.);
#160=ADVANCED_FACE('',(#41),#150,.F.);
#161=ADVANCED_FACE('',(#42),#151,.T.);
#162=ADVANCED_FACE('',(#43),#30,.T.);
#163=ADVANCED_FACE('',(#44),#152,.F.);
#164=ADVANCED_FACE('',(#45),#31,.F.);
#165=ADVANCED_FACE('',(#46,#34),#153,.F.);
#166=CLOSED_SHELL('',(#154,#155,#156,#157,#158,#159,#160));
#167=CLOSED_SHELL('',(#161,#162,#163,#164,#165));
#168=DERIVED_UNIT_ELEMENT(#170,1.);
#169=DERIVED_UNIT_ELEMENT(#323,3.);
#170=(
MASS_UNIT()
NAMED_UNIT(*)
SI_UNIT($,.GRAM.)
);
#171=DERIVED_UNIT((#168,#169));
#172=MEASURE_REPRESENTATION_ITEM('density measure',
POSITIVE_RATIO_MEASURE(1.),#171);
#173=PROPERTY_DEFINITION_REPRESENTATION(#178,#175);
#174=PROPERTY_DEFINITION_REPRESENTATION(#179,#176);
#175=REPRESENTATION('material name',(#177),#320);
#176=REPRESENTATION('density',(#172),#320);
#177=DESCRIPTIVE_REPRESENTATION_ITEM('Generic','Generic');
#178=PROPERTY_DEFINITION('material property','material name',#330);
#179=PROPERTY_DEFINITION('material property','density of part',#330);
#180=DATE_TIME_ROLE('creation_date');
#181=APPLIED_DATE_AND_TIME_ASSIGNMENT(#182,#180,(#330));
#182=DATE_AND_TIME(#183,#184);
#183=CALENDAR_DATE(2019,5,12);
#184=LOCAL_TIME(14,19,41.,#185);
#185=COORDINATED_UNIVERSAL_TIME_OFFSET(0,0,.BEHIND.);
#186=AXIS2_PLACEMENT_3D('placement',#272,#213,#214);
#187=AXIS2_PLACEMENT_3D('',#273,#215,#216);
#188=AXIS2_PLACEMENT_3D('',#276,#217,#218);
#189=AXIS2_PLACEMENT_3D('',#277,#219,#220);
#190=AXIS2_PLACEMENT_3D('',#279,#221,#222);
#191=AXIS2_PLACEMENT_3D('',#280,#223,#224);
#192=AXIS2_PLACEMENT_3D('',#284,#226,#227);
#193=AXIS2_PLACEMENT_3D('',#285,#228,#229);
#194=AXIS2_PLACEMENT_3D('',#286,#230,#231);
#195=AXIS2_PLACEMENT_3D('',#289,#233,#234);
#196=AXIS2_PLACEMENT_3D('',#290,#235,#236);
#197=AXIS2_PLACEMENT_3D('',#292,#237,#238);
#198=AXIS2_PLACEMENT_3D('',#295,#240,#241);
#199=AXIS2_PLACEMENT_3D('',#296,#242,#243);
#200=AXIS2_PLACEMENT_3D('',#297,#244,#245);
#201=AXIS2_PLACEMENT_3D('',#298,#246,#247);
#202=AXIS2_PLACEMENT_3D('',#299,#248,#249);
#203=AXIS2_PLACEMENT_3D('',#302,#250,#251);
#204=AXIS2_PLACEMENT_3D('',#303,#252,#253);
#205=AXIS2_PLACEMENT_3D('',#304,#254,#255);
#206=AXIS2_PLACEMENT_3D('',#308,#257,#258);
#207=AXIS2_PLACEMENT_3D('',#309,#259,#260);
#208=AXIS2_PLACEMENT_3D('',#310,#261,#262);
#209=AXIS2_PLACEMENT_3D('',#312,#263,#264);
#210=AXIS2_PLACEMENT_3D('',#313,#265,#266);
#211=AXIS2_PLACEMENT_3D('',#316,#268,#269);
#212=AXIS2_PLACEMENT_3D('',#317,#270,#271);
#213=DIRECTION('axis',(0.,0.,1.));
#214=DIRECTION('refdir',(1.,0.,0.));
#215=DIRECTION('center_axis',(0.,1.,0.));
#216=DIRECTION('ref_axis',(0.,0.,1.));
#217=DIRECTION('center_axis',(0.,-1.,0.));
#218=DIRECTION('ref_axis',(-0.707106781186547,0.,0.707106781186547));
#219=DIRECTION('center_axis',(0.,-1.,0.));
#220=DIRECTION('ref_axis',(-0.707106781186547,0.,0.707106781186547));
#221=DIRECTION('center_axis',(0.,-1.,0.));
#222=DIRECTION('ref_axis',(-1.,0.,0.));
#223=DIRECTION('center_axis',(0.,1.,0.));
#224=DIRECTION('ref_axis',(-0.707106781186547,0.,-0.707106781186547));
#225=DIRECTION('',(0.,-1.,0.));
#226=DIRECTION('center_axis',(0.,1.,0.));
#227=DIRECTION('ref_axis',(-0.707106781186547,0.,0.707106781186547));
#228=DIRECTION('center_axis',(0.,1.,0.));
#229=DIRECTION('ref_axis',(-0.707106781186547,0.,0.707106781186547));
#230=DIRECTION('center_axis',(0.,1.,0.));
#231=DIRECTION('ref_axis',(-1.,0.,0.));
#232=DIRECTION('',(0.,-1.,0.));
#233=DIRECTION('center_axis',(0.,1.,0.));
#234=DIRECTION('ref_axis',(-1.,0.,0.));
#235=DIRECTION('center_axis',(0.,1.,0.));
#236=DIRECTION('ref_axis',(-1.,0.,0.));
#237=DIRECTION('center_axis',(0.,-1.,0.));
#238=DIRECTION('ref_axis',(-1.,0.,0.));
#239=DIRECTION('',(0.,-1.,0.));
#240=DIRECTION('center_axis',(0.,1.,0.));
#241=DIRECTION('ref_axis',(-1.,0.,0.));
#242=DIRECTION('center_axis',(0.,1.,0.));
#243=DIRECTION('ref_axis',(0.,0.,1.));
#244=DIRECTION('center_axis',(0.,1.,0.));
#245=DIRECTION('ref_axis',(0.,0.,1.));
#246=DIRECTION('center_axis',(0.,1.,0.));
#247=DIRECTION('ref_axis',(0.,0.,1.));
#248=DIRECTION('center_axis',(0.,1.,0.));
#249=DIRECTION('ref_axis',(0.,0.,1.));
#250=DIRECTION('center_axis',(0.,-1.,0.));
#251=DIRECTION('ref_axis',(-0.707106781186547,0.,0.707106781186547));
#252=DIRECTION('center_axis',(0.,-1.,0.));
#253=DIRECTION('ref_axis',(-0.707106781186547,0.,0.707106781186547));
#254=DIRECTION('center_axis',(0.,1.,0.));
#255=DIRECTION('ref_axis',(-0.707106781186547,0.,-0.707106781186547));
#256=DIRECTION('',(0.,-1.,0.));
#257=DIRECTION('center_axis',(0.,1.,0.));
#258=DIRECTION('ref_axis',(-0.707106781186547,0.,0.707106781186547));
#259=DIRECTION('center_axis',(0.,1.,0.));
#260=DIRECTION('ref_axis',(-0.707106781186547,0.,0.707106781186547));
#261=DIRECTION('center_axis',(0.,1.,0.));
#262=DIRECTION('ref_axis',(0.,0.,1.));
#263=DIRECTION('center_axis',(0.,-1.,0.));
#264=DIRECTION('ref_axis',(-1.,0.,0.));
#265=DIRECTION('center_axis',(0.,1.,0.));
#266=DIRECTION('ref_axis',(-1.,0.,0.));
#267=DIRECTION('',(0.,-1.,0.));
#268=DIRECTION('center_axis',(0.,-1.,0.));
#269=DIRECTION('ref_axis',(-1.,0.,0.));
#270=DIRECTION('center_axis',(0.,1.,0.));
#271=DIRECTION('ref_axis',(0.,0.,1.));
#272=CARTESIAN_POINT('',(0.,0.,0.));
#273=CARTESIAN_POINT('Origin',(0.,7.,0.));
#274=CARTESIAN_POINT('',(-5.55111512312578E-16,7.,5.));
#275=CARTESIAN_POINT('',(3.53553390593274,7.,3.53553390593274));
#276=CARTESIAN_POINT('Origin',(5.55111512312578E-16,7.,-5.55111512312578E-16));
#277=CARTESIAN_POINT('Origin',(5.55111512312578E-16,7.,-5.55111512312578E-16));
#278=CARTESIAN_POINT('',(3.15,7.,-5.55111512312578E-16));
#279=CARTESIAN_POINT('Origin',(0.,7.,0.));
#280=CARTESIAN_POINT('Origin',(5.55111512312578E-16,0.,5.55111512312578E-16));
#281=CARTESIAN_POINT('',(3.53553390593274,0.,3.53553390593274));
#282=CARTESIAN_POINT('',(3.53553390593274,0.,3.53553390593274));
#283=CARTESIAN_POINT('',(-5.55111512312578E-16,0.,5.));
#284=CARTESIAN_POINT('Origin',(5.55111512312578E-16,0.,-5.55111512312578E-16));
#285=CARTESIAN_POINT('Origin',(5.55111512312578E-16,0.,-5.55111512312578E-16));
#286=CARTESIAN_POINT('Origin',(0.,4.2,0.));
#287=CARTESIAN_POINT('',(3.15,4.2,-3.85763741731416E-16));
#288=CARTESIAN_POINT('',(3.15,4.2,-3.85763741731416E-16));
#289=CARTESIAN_POINT('Origin',(0.,4.2,0.));
#290=CARTESIAN_POINT('Origin',(0.,2.,0.));
#291=CARTESIAN_POINT('',(1.75,4.2,0.));
#292=CARTESIAN_POINT('Origin',(0.,4.2,0.));
#293=CARTESIAN_POINT('',(1.75,2.,-2.14313189850787E-16));
#294=CARTESIAN_POINT('',(1.75,2.,-2.14313189850787E-16));
#295=CARTESIAN_POINT('Origin',(0.,2.,0.));
#296=CARTESIAN_POINT('Origin',(0.,4.2,0.));
#297=CARTESIAN_POINT('Origin',(0.,2.,0.));
#298=CARTESIAN_POINT('Origin',(0.,0.,0.));
#299=CARTESIAN_POINT('Origin',(0.,11.2,0.));
#300=CARTESIAN_POINT('',(-5.55111512312578E-16,11.2,5.));
#301=CARTESIAN_POINT('',(3.53553390593274,11.2,3.53553390593274));
#302=CARTESIAN_POINT('Origin',(5.55111512312578E-16,11.2,-5.55111512312578E-16));
#303=CARTESIAN_POINT('Origin',(5.55111512312578E-16,11.2,-5.55111512312578E-16));
#304=CARTESIAN_POINT('Origin',(5.55111512312578E-16,7.,5.55111512312578E-16));
#305=CARTESIAN_POINT('',(3.53553390593274,7.,3.53553390593274));
#306=CARTESIAN_POINT('',(3.53553390593274,7.,3.53553390593274));
#307=CARTESIAN_POINT('',(-5.55111512312578E-16,7.,5.));
#308=CARTESIAN_POINT('Origin',(5.55111512312578E-16,7.,-5.55111512312578E-16));
#309=CARTESIAN_POINT('Origin',(5.55111512312578E-16,7.,-5.55111512312578E-16));
#310=CARTESIAN_POINT('Origin',(0.,9.2,0.));
#311=CARTESIAN_POINT('',(1.75,9.2,0.));
#312=CARTESIAN_POINT('Origin',(0.,9.2,0.));
#313=CARTESIAN_POINT('Origin',(0.,7.,0.));
#314=CARTESIAN_POINT('',(1.75,7.,-2.14313189850787E-16));
#315=CARTESIAN_POINT('',(1.75,7.,-2.14313189850787E-16));
#316=CARTESIAN_POINT('Origin',(0.,7.,0.));
#317=CARTESIAN_POINT('Origin',(0.,7.,0.));
#318=UNCERTAINTY_MEASURE_WITH_UNIT(LENGTH_MEASURE(0.01),#322,
'DISTANCE_ACCURACY_VALUE',
'Maximum model space distance between geometric entities at asserted c
onnectivities');
#319=UNCERTAINTY_MEASURE_WITH_UNIT(LENGTH_MEASURE(0.01),#322,
'DISTANCE_ACCURACY_VALUE',
'Maximum model space distance between geometric entities at asserted c
onnectivities');
#320=(
GEOMETRIC_REPRESENTATION_CONTEXT(3)
GLOBAL_UNCERTAINTY_ASSIGNED_CONTEXT((#318))
GLOBAL_UNIT_ASSIGNED_CONTEXT((#322,#324,#325))
REPRESENTATION_CONTEXT('','3D')
);
#321=(
GEOMETRIC_REPRESENTATION_CONTEXT(3)
GLOBAL_UNCERTAINTY_ASSIGNED_CONTEXT((#319))
GLOBAL_UNIT_ASSIGNED_CONTEXT((#322,#324,#325))
REPRESENTATION_CONTEXT('','3D')
);
#322=(
LENGTH_UNIT()
NAMED_UNIT(*)
SI_UNIT(.MILLI.,.METRE.)
);
#323=(
LENGTH_UNIT()
NAMED_UNIT(*)
SI_UNIT(.CENTI.,.METRE.)
);
#324=(
NAMED_UNIT(*)
PLANE_ANGLE_UNIT()
SI_UNIT($,.RADIAN.)
);
#325=(
NAMED_UNIT(*)
SI_UNIT($,.STERADIAN.)
SOLID_ANGLE_UNIT()
);
#326=SHAPE_DEFINITION_REPRESENTATION(#327,#328);
#327=PRODUCT_DEFINITION_SHAPE('',$,#330);
#328=SHAPE_REPRESENTATION('',(#186),#320);
#329=PRODUCT_DEFINITION_CONTEXT('part definition',#334,'design');
#330=PRODUCT_DEFINITION('KitBearingPress','KitBearingPress',#331,#329);
#331=PRODUCT_DEFINITION_FORMATION('',$,#336);
#332=PRODUCT_RELATED_PRODUCT_CATEGORY('KitBearingPress',
'KitBearingPress',(#336));
#333=APPLICATION_PROTOCOL_DEFINITION('international standard',
'automotive_design',2009,#334);
#334=APPLICATION_CONTEXT(
'Core Data for Automotive Mechanical Design Process');
#335=PRODUCT_CONTEXT('part definition',#334,'mechanical');
#336=PRODUCT('KitBearingPress','KitBearingPress',$,(#335));
#337=PRESENTATION_STYLE_ASSIGNMENT((#338));
#338=SURFACE_STYLE_USAGE(.BOTH.,#341);
#339=SURFACE_STYLE_RENDERING_WITH_PROPERTIES($,#345,(#340));
#340=SURFACE_STYLE_TRANSPARENT(0.);
#341=SURFACE_SIDE_STYLE('',(#342,#339));
#342=SURFACE_STYLE_FILL_AREA(#343);
#343=FILL_AREA_STYLE('',(#344));
#344=FILL_AREA_STYLE_COLOUR('',#345);
#345=COLOUR_RGB('',0.749019607843137,0.749019607843137,0.749019607843137);
ENDSEC;
END-ISO-10303-21;
