ISO-10303-21;
HEADER;
/* Generated by software containing ST-Developer
 * from STEP Tools, Inc. (www.steptools.com) 
 */

FILE_DESCRIPTION(
/* description */ ('',
'CAx-IF Rec.Pracs.---Representation and Presentation of Product Manufa
cturing Information (PMI)---4.0---2014-10-13'),
/* implementation_level */ '2;1');

FILE_NAME(
/* name */ 
'',
/* time_stamp */ '2019-11-25T18:02:44-05:00',
/* author */ (''),
/* organization */ (''),
/* preprocessor_version */ 'ST-DEVELOPER v18',
/* originating_system */ '',
/* authorisation */ '');

FILE_SCHEMA (('AP242_MANAGED_MODEL_BASED_3D_ENGINEERING_MIM_LF { 1 0 10303 442 1 1 4 }'));
ENDSEC;

DATA;
#10=MECHANICAL_DESIGN_AND_DRAUGHTING_RELATIONSHIP('Isometric','',#24,#25);
#11=MECHANICAL_DESIGN_AND_DRAUGHTING_RELATIONSHIP('Front','',#26,#25);
#12=MECHANICAL_DESIGN_AND_DRAUGHTING_RELATIONSHIP('Top','',#27,#25);
#13=MECHANICAL_DESIGN_AND_DRAUGHTING_RELATIONSHIP('Right','',#28,#25);
#14=MAPPED_ITEM('',#19,#169);
#15=MAPPED_ITEM('',#20,#170);
#16=MAPPED_ITEM('',#21,#171);
#17=MAPPED_ITEM('',#22,#172);
#18=MAPPED_ITEM('',#23,#173);
#19=REPRESENTATION_MAP(#169,#43);
#20=REPRESENTATION_MAP(#170,#288);
#21=REPRESENTATION_MAP(#171,#43);
#22=REPRESENTATION_MAP(#172,#43);
#23=REPRESENTATION_MAP(#173,#43);
#24=DRAUGHTING_MODEL('Isometric',(#14,#30),#280);
#25=DRAUGHTING_MODEL('',(#15,#170),#280);
#26=DRAUGHTING_MODEL('Front',(#16,#31),#280);
#27=DRAUGHTING_MODEL('Top',(#17,#32),#280);
#28=DRAUGHTING_MODEL('Right',(#18,#33),#280);
#29=MECHANICAL_DESIGN_GEOMETRIC_PRESENTATION_REPRESENTATION('',(#44),#281);
#30=CAMERA_MODEL_D3('Isometric',#161,#34);
#31=CAMERA_MODEL_D3('Front',#163,#35);
#32=CAMERA_MODEL_D3('Top',#165,#36);
#33=CAMERA_MODEL_D3('Right',#167,#37);
#34=VIEW_VOLUME(.PARALLEL.,#263,16.9875424688562,0.,.F.,0.,.F.,.F.,#38);
#35=VIEW_VOLUME(.PARALLEL.,#266,117.693146607172,0.,.F.,0.,.F.,.F.,#39);
#36=VIEW_VOLUME(.PARALLEL.,#269,117.693146607172,0.,.F.,0.,.F.,.F.,#40);
#37=VIEW_VOLUME(.PARALLEL.,#272,117.693146607172,0.,.F.,0.,.F.,.F.,#41);
#38=PLANAR_BOX('view window',0.,0.,#162);
#39=PLANAR_BOX('view window',0.,0.,#164);
#40=PLANAR_BOX('view window',0.,0.,#166);
#41=PLANAR_BOX('view window',0.,0.,#168);
#42=SHAPE_REPRESENTATION_RELATIONSHIP('SRR','None',#288,#43);
#43=ADVANCED_BREP_SHAPE_REPRESENTATION('',(#46),#280);
#44=STYLED_ITEM('',(#297),#46);
#45=STYLED_ITEM('',(#298),#15);
#46=MANIFOLD_SOLID_BREP('Solid1',#131);
#47=CYLINDRICAL_SURFACE('',#158,1.515);
#48=CIRCLE('',#153,1.515);
#49=CIRCLE('',#154,1.215);
#50=CIRCLE('',#156,1.515);
#51=CIRCLE('',#157,1.215);
#52=CONICAL_SURFACE('',#152,1.365,0.785398163397448);
#53=CONICAL_SURFACE('',#155,1.365,0.785398163397448);
#54=FACE_OUTER_BOUND('',#60,.T.);
#55=FACE_OUTER_BOUND('',#61,.T.);
#56=FACE_OUTER_BOUND('',#62,.T.);
#57=FACE_OUTER_BOUND('',#63,.T.);
#58=FACE_OUTER_BOUND('',#64,.T.);
#59=FACE_OUTER_BOUND('',#65,.T.);
#60=EDGE_LOOP('',(#98,#99,#100,#101,#102,#103,#104,#105));
#61=EDGE_LOOP('',(#106,#107,#108,#109));
#62=EDGE_LOOP('',(#110,#111,#112,#113));
#63=EDGE_LOOP('',(#114,#115,#116,#117));
#64=EDGE_LOOP('',(#118,#119));
#65=EDGE_LOOP('',(#120,#121));
#66=LINE('',#234,#70);
#67=LINE('',#240,#71);
#68=LINE('',#246,#72);
#69=LINE('',#251,#73);
#70=VECTOR('',#178,10.);
#71=VECTOR('',#179,10.);
#72=VECTOR('',#180,10.);
#73=VECTOR('',#181,10.);
#74=(
BOUNDED_CURVE()
B_SPLINE_CURVE(2,(#230,#231,#232),.UNSPECIFIED.,.F.,.F.)
B_SPLINE_CURVE_WITH_KNOTS((3,3),(0.,0.0502092870736559),.UNSPECIFIED.)
CURVE()
GEOMETRIC_REPRESENTATION_ITEM()
RATIONAL_B_SPLINE_CURVE((1.,1.01104757342461,1.))
REPRESENTATION_ITEM('')
);
#75=(
BOUNDED_CURVE()
B_SPLINE_CURVE(2,(#236,#237,#238),.UNSPECIFIED.,.F.,.F.)
B_SPLINE_CURVE_WITH_KNOTS((3,3),(0.,0.0502092870736559),.UNSPECIFIED.)
CURVE()
GEOMETRIC_REPRESENTATION_ITEM()
RATIONAL_B_SPLINE_CURVE((1.,1.01104757342461,1.))
REPRESENTATION_ITEM('')
);
#76=(
BOUNDED_CURVE()
B_SPLINE_CURVE(2,(#242,#243,#244),.UNSPECIFIED.,.F.,.F.)
B_SPLINE_CURVE_WITH_KNOTS((3,3),(0.,0.0502092870736558),.UNSPECIFIED.)
CURVE()
GEOMETRIC_REPRESENTATION_ITEM()
RATIONAL_B_SPLINE_CURVE((1.,1.01104757342464,1.))
REPRESENTATION_ITEM('')
);
#77=(
BOUNDED_CURVE()
B_SPLINE_CURVE(2,(#248,#249,#250),.UNSPECIFIED.,.F.,.F.)
B_SPLINE_CURVE_WITH_KNOTS((3,3),(0.,0.0502092870736558),.UNSPECIFIED.)
CURVE()
GEOMETRIC_REPRESENTATION_ITEM()
RATIONAL_B_SPLINE_CURVE((1.,1.01104757342464,1.))
REPRESENTATION_ITEM('')
);
#78=VERTEX_POINT('',#228);
#79=VERTEX_POINT('',#229);
#80=VERTEX_POINT('',#233);
#81=VERTEX_POINT('',#235);
#82=VERTEX_POINT('',#239);
#83=VERTEX_POINT('',#241);
#84=VERTEX_POINT('',#245);
#85=VERTEX_POINT('',#247);
#86=EDGE_CURVE('',#78,#79,#74,.T.);
#87=EDGE_CURVE('',#80,#78,#66,.T.);
#88=EDGE_CURVE('',#81,#80,#75,.T.);
#89=EDGE_CURVE('',#82,#81,#67,.T.);
#90=EDGE_CURVE('',#83,#82,#76,.T.);
#91=EDGE_CURVE('',#84,#83,#68,.T.);
#92=EDGE_CURVE('',#85,#84,#77,.T.);
#93=EDGE_CURVE('',#79,#85,#69,.T.);
#94=EDGE_CURVE('',#82,#85,#48,.T.);
#95=EDGE_CURVE('',#84,#83,#49,.T.);
#96=EDGE_CURVE('',#79,#81,#50,.T.);
#97=EDGE_CURVE('',#80,#78,#51,.T.);
#98=ORIENTED_EDGE('',*,*,#86,.F.);
#99=ORIENTED_EDGE('',*,*,#87,.F.);
#100=ORIENTED_EDGE('',*,*,#88,.F.);
#101=ORIENTED_EDGE('',*,*,#89,.F.);
#102=ORIENTED_EDGE('',*,*,#90,.F.);
#103=ORIENTED_EDGE('',*,*,#91,.F.);
#104=ORIENTED_EDGE('',*,*,#92,.F.);
#105=ORIENTED_EDGE('',*,*,#93,.F.);
#106=ORIENTED_EDGE('',*,*,#90,.T.);
#107=ORIENTED_EDGE('',*,*,#94,.T.);
#108=ORIENTED_EDGE('',*,*,#92,.T.);
#109=ORIENTED_EDGE('',*,*,#95,.T.);
#110=ORIENTED_EDGE('',*,*,#86,.T.);
#111=ORIENTED_EDGE('',*,*,#96,.T.);
#112=ORIENTED_EDGE('',*,*,#88,.T.);
#113=ORIENTED_EDGE('',*,*,#97,.T.);
#114=ORIENTED_EDGE('',*,*,#89,.T.);
#115=ORIENTED_EDGE('',*,*,#96,.F.);
#116=ORIENTED_EDGE('',*,*,#93,.T.);
#117=ORIENTED_EDGE('',*,*,#94,.F.);
#118=ORIENTED_EDGE('',*,*,#91,.T.);
#119=ORIENTED_EDGE('',*,*,#95,.F.);
#120=ORIENTED_EDGE('',*,*,#87,.T.);
#121=ORIENTED_EDGE('',*,*,#97,.F.);
#122=PLANE('',#151);
#123=PLANE('',#159);
#124=PLANE('',#160);
#125=ADVANCED_FACE('',(#54),#122,.F.);
#126=ADVANCED_FACE('',(#55),#52,.T.);
#127=ADVANCED_FACE('',(#56),#53,.T.);
#128=ADVANCED_FACE('',(#57),#47,.T.);
#129=ADVANCED_FACE('',(#58),#123,.F.);
#130=ADVANCED_FACE('',(#59),#124,.T.);
#131=CLOSED_SHELL('',(#125,#126,#127,#128,#129,#130));
#132=DERIVED_UNIT_ELEMENT(#134,1.);
#133=DERIVED_UNIT_ELEMENT(#283,3.);
#134=(
MASS_UNIT()
NAMED_UNIT(*)
SI_UNIT($,.GRAM.)
);
#135=DERIVED_UNIT((#132,#133));
#136=MEASURE_REPRESENTATION_ITEM('density measure',
POSITIVE_RATIO_MEASURE(1.),#135);
#137=PROPERTY_DEFINITION_REPRESENTATION(#142,#139);
#138=PROPERTY_DEFINITION_REPRESENTATION(#143,#140);
#139=REPRESENTATION('material name',(#141),#280);
#140=REPRESENTATION('density',(#136),#280);
#141=DESCRIPTIVE_REPRESENTATION_ITEM('Generic','Generic');
#142=PROPERTY_DEFINITION('material property','material name',#290);
#143=PROPERTY_DEFINITION('material property','density of part',#290);
#144=DATE_TIME_ROLE('creation_date');
#145=APPLIED_DATE_AND_TIME_ASSIGNMENT(#146,#144,(#290));
#146=DATE_AND_TIME(#147,#148);
#147=CALENDAR_DATE(2019,8,9);
#148=LOCAL_TIME(3,35,44.,#149);
#149=COORDINATED_UNIVERSAL_TIME_OFFSET(0,0,.BEHIND.);
#150=AXIS2_PLACEMENT_3D('placement',#226,#174,#175);
#151=AXIS2_PLACEMENT_3D('',#227,#176,#177);
#152=AXIS2_PLACEMENT_3D('',#252,#182,#183);
#153=AXIS2_PLACEMENT_3D('',#253,#184,#185);
#154=AXIS2_PLACEMENT_3D('',#254,#186,#187);
#155=AXIS2_PLACEMENT_3D('',#255,#188,#189);
#156=AXIS2_PLACEMENT_3D('',#256,#190,#191);
#157=AXIS2_PLACEMENT_3D('',#257,#192,#193);
#158=AXIS2_PLACEMENT_3D('',#258,#194,#195);
#159=AXIS2_PLACEMENT_3D('',#259,#196,#197);
#160=AXIS2_PLACEMENT_3D('',#260,#198,#199);
#161=AXIS2_PLACEMENT_3D('view reference',#261,#200,#201);
#162=AXIS2_PLACEMENT_3D('view window',#262,#202,#203);
#163=AXIS2_PLACEMENT_3D('view reference',#264,#204,#205);
#164=AXIS2_PLACEMENT_3D('view window',#265,#206,#207);
#165=AXIS2_PLACEMENT_3D('view reference',#267,#208,#209);
#166=AXIS2_PLACEMENT_3D('view window',#268,#210,#211);
#167=AXIS2_PLACEMENT_3D('view reference',#270,#212,#213);
#168=AXIS2_PLACEMENT_3D('view window',#271,#214,#215);
#169=AXIS2_PLACEMENT_3D('',#273,#216,#217);
#170=AXIS2_PLACEMENT_3D('',#274,#218,#219);
#171=AXIS2_PLACEMENT_3D('',#275,#220,#221);
#172=AXIS2_PLACEMENT_3D('',#276,#222,#223);
#173=AXIS2_PLACEMENT_3D('',#277,#224,#225);
#174=DIRECTION('axis',(0.,0.,1.));
#175=DIRECTION('refdir',(1.,0.,0.));
#176=DIRECTION('center_axis',(0.,-1.,0.));
#177=DIRECTION('ref_axis',(-1.,0.,0.));
#178=DIRECTION('',(-1.,0.,0.));
#179=DIRECTION('',(0.,0.,1.));
#180=DIRECTION('',(1.,0.,0.));
#181=DIRECTION('',(0.,0.,-1.));
#182=DIRECTION('center_axis',(0.,0.,1.));
#183=DIRECTION('ref_axis',(6.12323399573676E-17,-1.,0.));
#184=DIRECTION('center_axis',(0.,0.,-1.));
#185=DIRECTION('ref_axis',(1.,0.,0.));
#186=DIRECTION('center_axis',(0.,0.,1.));
#187=DIRECTION('ref_axis',(1.,0.,0.));
#188=DIRECTION('center_axis',(0.,0.,-1.));
#189=DIRECTION('ref_axis',(-1.83697019872103E-16,-1.,0.));
#190=DIRECTION('center_axis',(0.,0.,1.));
#191=DIRECTION('ref_axis',(1.,0.,0.));
#192=DIRECTION('center_axis',(0.,0.,-1.));
#193=DIRECTION('ref_axis',(1.,0.,0.));
#194=DIRECTION('center_axis',(0.,0.,1.));
#195=DIRECTION('ref_axis',(6.12323399573677E-17,-1.,0.));
#196=DIRECTION('center_axis',(0.,0.,1.));
#197=DIRECTION('ref_axis',(1.,0.,0.));
#198=DIRECTION('center_axis',(0.,0.,1.));
#199=DIRECTION('ref_axis',(1.,0.,0.));
#200=DIRECTION('center_axis',(-0.577350269189626,0.577350269189626,-0.577350269189626));
#201=DIRECTION('ref_axis',(-0.707106781186548,-0.707106781186548,0.));
#202=DIRECTION('center_axis',(0.,0.,1.));
#203=DIRECTION('ref_axis',(1.,0.,0.));
#204=DIRECTION('center_axis',(-2.22044604925031E-16,0.,-1.));
#205=DIRECTION('ref_axis',(-1.,0.,2.22044604925031E-16));
#206=DIRECTION('center_axis',(0.,0.,1.));
#207=DIRECTION('ref_axis',(1.,0.,0.));
#208=DIRECTION('center_axis',(0.,-1.,0.));
#209=DIRECTION('ref_axis',(-1.,0.,0.));
#210=DIRECTION('center_axis',(0.,0.,1.));
#211=DIRECTION('ref_axis',(1.,0.,0.));
#212=DIRECTION('center_axis',(-1.,0.,0.));
#213=DIRECTION('ref_axis',(0.,0.,1.));
#214=DIRECTION('center_axis',(0.,0.,1.));
#215=DIRECTION('ref_axis',(1.,0.,0.));
#216=DIRECTION('center_axis',(0.,0.,1.));
#217=DIRECTION('ref_axis',(1.,0.,0.));
#218=DIRECTION('center_axis',(0.,0.,1.));
#219=DIRECTION('ref_axis',(1.,0.,0.));
#220=DIRECTION('center_axis',(0.,0.,1.));
#221=DIRECTION('ref_axis',(1.,0.,0.));
#222=DIRECTION('center_axis',(0.,0.,1.));
#223=DIRECTION('ref_axis',(1.,0.,0.));
#224=DIRECTION('center_axis',(0.,0.,1.));
#225=DIRECTION('ref_axis',(1.,0.,0.));
#226=CARTESIAN_POINT('',(0.,0.,0.));
#227=CARTESIAN_POINT('Origin',(1.21869807581698,0.9,7.2));
#228=CARTESIAN_POINT('',(-0.816226071624768,0.9,7.2));
#229=CARTESIAN_POINT('',(-1.21869807581698,0.9,6.9));
#230=CARTESIAN_POINT('Ctrl Pts',(-0.816226071624768,0.9,7.2));
#231=CARTESIAN_POINT('Ctrl Pts',(-0.995348227336677,0.9,7.07966734691548));
#232=CARTESIAN_POINT('Ctrl Pts',(-1.21869807581698,0.9,6.9));
#233=CARTESIAN_POINT('',(0.816226071624768,0.9,7.2));
#234=CARTESIAN_POINT('',(0.609349037908488,0.9,7.2));
#235=CARTESIAN_POINT('',(1.21869807581698,0.9,6.9));
#236=CARTESIAN_POINT('Ctrl Pts',(1.21869807581698,0.9,6.9));
#237=CARTESIAN_POINT('Ctrl Pts',(0.995348227336677,0.9,7.07966734691548));
#238=CARTESIAN_POINT('Ctrl Pts',(0.816226071624768,0.9,7.2));
#239=CARTESIAN_POINT('',(1.21869807581698,0.9,0.3));
#240=CARTESIAN_POINT('',(1.21869807581698,0.9,0.));
#241=CARTESIAN_POINT('',(0.816226071624767,0.9,0.));
#242=CARTESIAN_POINT('Ctrl Pts',(0.816226071624768,0.9,0.));
#243=CARTESIAN_POINT('Ctrl Pts',(0.995348227336692,0.9,0.120332653084531));
#244=CARTESIAN_POINT('Ctrl Pts',(1.21869807581698,0.9,0.3));
#245=CARTESIAN_POINT('',(-0.816226071624767,0.9,0.));
#246=CARTESIAN_POINT('',(0.609349037908488,0.9,0.));
#247=CARTESIAN_POINT('',(-1.21869807581698,0.9,0.3));
#248=CARTESIAN_POINT('Ctrl Pts',(-1.21869807581698,0.9,0.3));
#249=CARTESIAN_POINT('Ctrl Pts',(-0.995348227336692,0.9,0.120332653084531));
#250=CARTESIAN_POINT('Ctrl Pts',(-0.816226071624768,0.9,0.));
#251=CARTESIAN_POINT('',(-1.21869807581698,0.9,0.));
#252=CARTESIAN_POINT('Origin',(0.,0.,0.15));
#253=CARTESIAN_POINT('Origin',(0.,0.,0.3));
#254=CARTESIAN_POINT('Origin',(0.,0.,0.));
#255=CARTESIAN_POINT('Origin',(0.,0.,7.05));
#256=CARTESIAN_POINT('Origin',(0.,0.,6.9));
#257=CARTESIAN_POINT('Origin',(0.,0.,7.2));
#258=CARTESIAN_POINT('Origin',(0.,0.,0.));
#259=CARTESIAN_POINT('Origin',(0.,0.2575,0.));
#260=CARTESIAN_POINT('Origin',(0.,0.2575,7.2));
#261=CARTESIAN_POINT('Origin',(9.80776221726431,-9.80776221726431,9.80776221726431));
#262=CARTESIAN_POINT('Origin',(0.,0.,16.9875424688562));
#263=CARTESIAN_POINT('',(0.,0.,0.));
#264=CARTESIAN_POINT('Origin',(2.61331282407732E-14,0.,117.693146607172));
#265=CARTESIAN_POINT('Origin',(0.,0.,117.693146607172));
#266=CARTESIAN_POINT('',(0.,0.,0.));
#267=CARTESIAN_POINT('Origin',(0.,117.693146607172,0.));
#268=CARTESIAN_POINT('Origin',(0.,0.,117.693146607172));
#269=CARTESIAN_POINT('',(0.,0.,0.));
#270=CARTESIAN_POINT('Origin',(117.693146607172,0.,0.));
#271=CARTESIAN_POINT('Origin',(0.,0.,117.693146607172));
#272=CARTESIAN_POINT('',(0.,0.,0.));
#273=CARTESIAN_POINT('Origin',(0.,0.,0.));
#274=CARTESIAN_POINT('Origin',(0.,0.,0.));
#275=CARTESIAN_POINT('Origin',(0.,0.,0.));
#276=CARTESIAN_POINT('Origin',(0.,0.,0.));
#277=CARTESIAN_POINT('Origin',(0.,0.,0.));
#278=UNCERTAINTY_MEASURE_WITH_UNIT(LENGTH_MEASURE(0.01),#282,
'DISTANCE_ACCURACY_VALUE',
'Maximum model space distance between geometric entities at asserted c
onnectivities');
#279=UNCERTAINTY_MEASURE_WITH_UNIT(LENGTH_MEASURE(0.01),#282,
'DISTANCE_ACCURACY_VALUE',
'Maximum model space distance between geometric entities at asserted c
onnectivities');
#280=(
GEOMETRIC_REPRESENTATION_CONTEXT(3)
GLOBAL_UNCERTAINTY_ASSIGNED_CONTEXT((#278))
GLOBAL_UNIT_ASSIGNED_CONTEXT((#282,#284,#285))
REPRESENTATION_CONTEXT('','3D')
);
#281=(
GEOMETRIC_REPRESENTATION_CONTEXT(3)
GLOBAL_UNCERTAINTY_ASSIGNED_CONTEXT((#279))
GLOBAL_UNIT_ASSIGNED_CONTEXT((#282,#284,#285))
REPRESENTATION_CONTEXT('','3D')
);
#282=(
LENGTH_UNIT()
NAMED_UNIT(*)
SI_UNIT(.MILLI.,.METRE.)
);
#283=(
LENGTH_UNIT()
NAMED_UNIT(*)
SI_UNIT(.CENTI.,.METRE.)
);
#284=(
NAMED_UNIT(*)
PLANE_ANGLE_UNIT()
SI_UNIT($,.RADIAN.)
);
#285=(
NAMED_UNIT(*)
SI_UNIT($,.STERADIAN.)
SOLID_ANGLE_UNIT()
);
#286=SHAPE_DEFINITION_REPRESENTATION(#287,#288);
#287=PRODUCT_DEFINITION_SHAPE('',$,#290);
#288=SHAPE_REPRESENTATION('',(#150),#280);
#289=PRODUCT_DEFINITION_CONTEXT('part definition',#294,'design');
#290=PRODUCT_DEFINITION('RollerBearingDowel','RollerBearingDowel',#291,
#289);
#291=PRODUCT_DEFINITION_FORMATION('',$,#296);
#292=PRODUCT_RELATED_PRODUCT_CATEGORY('RollerBearingDowel',
'RollerBearingDowel',(#296));
#293=APPLICATION_PROTOCOL_DEFINITION('international standard',
'ap242_managed_model_based_3d_engineering',2011,#294);
#294=APPLICATION_CONTEXT('Managed model based 3d engineering');
#295=PRODUCT_CONTEXT('part definition',#294,'mechanical');
#296=PRODUCT('RollerBearingDowel','RollerBearingDowel',$,(#295));
#297=PRESENTATION_STYLE_ASSIGNMENT((#299));
#298=PRESENTATION_STYLE_ASSIGNMENT((NULL_STYLE(.NULL.)));
#299=SURFACE_STYLE_USAGE(.BOTH.,#302);
#300=SURFACE_STYLE_RENDERING_WITH_PROPERTIES($,#306,(#301));
#301=SURFACE_STYLE_TRANSPARENT(0.);
#302=SURFACE_SIDE_STYLE('',(#303,#300));
#303=SURFACE_STYLE_FILL_AREA(#304);
#304=FILL_AREA_STYLE('',(#305));
#305=FILL_AREA_STYLE_COLOUR('',#306);
#306=COLOUR_RGB('',0.749019607843137,0.749019607843137,0.749019607843137);
ENDSEC;
END-ISO-10303-21;
