ISO-10303-21;
HEADER;

FILE_DESCRIPTION(
/* description */ (''),
/* implementation_level */ '2;1');

FILE_NAME(
/* name */ 
'',
/* time_stamp */ '',
/* author */ (''),
/* organization */ (''),
/* preprocessor_version */ '',
/* originating_system */ '',
/* authorisation */ '');

FILE_SCHEMA (('AUTOMOTIVE_DESIGN { 1 0 10303 214 3 1 1 }'));
ENDSEC;

DATA;
#10=MECHANICAL_DESIGN_GEOMETRIC_PRESENTATION_REPRESENTATION('',(#13),#347);
#11=SHAPE_REPRESENTATION_RELATIONSHIP('SRR','None',#354,#12);
#12=ADVANCED_BREP_SHAPE_REPRESENTATION('',(#14),#346);
#13=STYLED_ITEM('',(#363),#14);
#14=MANIFOLD_SOLID_BREP('Solid1',#182);
#15=FACE_BOUND('',#44,.T.);
#16=FACE_BOUND('',#49,.T.);
#17=CYLINDRICAL_SURFACE('',#206,4.75);
#18=CYLINDRICAL_SURFACE('',#212,3.55);
#19=CYLINDRICAL_SURFACE('',#220,2.75);
#20=CYLINDRICAL_SURFACE('',#221,3.55);
#21=CYLINDRICAL_SURFACE('',#228,1.675);
#22=PLANE('',#205);
#23=PLANE('',#214);
#24=PLANE('',#224);
#25=PLANE('',#226);
#26=FACE_OUTER_BOUND('',#38,.T.);
#27=FACE_OUTER_BOUND('',#39,.T.);
#28=FACE_OUTER_BOUND('',#40,.T.);
#29=FACE_OUTER_BOUND('',#41,.T.);
#30=FACE_OUTER_BOUND('',#42,.T.);
#31=FACE_OUTER_BOUND('',#43,.T.);
#32=FACE_OUTER_BOUND('',#45,.T.);
#33=FACE_OUTER_BOUND('',#46,.T.);
#34=FACE_OUTER_BOUND('',#47,.T.);
#35=FACE_OUTER_BOUND('',#48,.T.);
#36=FACE_OUTER_BOUND('',#50,.T.);
#37=FACE_OUTER_BOUND('',#51,.T.);
#38=EDGE_LOOP('',(#121,#122,#123,#124));
#39=EDGE_LOOP('',(#125));
#40=EDGE_LOOP('',(#126,#127,#128,#129));
#41=EDGE_LOOP('',(#130,#131,#132,#133,#134));
#42=EDGE_LOOP('',(#135,#136,#137,#138));
#43=EDGE_LOOP('',(#139));
#44=EDGE_LOOP('',(#140));
#45=EDGE_LOOP('',(#141,#142,#143,#144,#145,#146));
#46=EDGE_LOOP('',(#147,#148,#149,#150,#151,#152));
#47=EDGE_LOOP('',(#153,#154,#155,#156,#157,#158));
#48=EDGE_LOOP('',(#159,#160));
#49=EDGE_LOOP('',(#161));
#50=EDGE_LOOP('',(#162));
#51=EDGE_LOOP('',(#163,#164,#165,#166));
#52=LINE('',#298,#60);
#53=LINE('',#304,#61);
#54=LINE('',#310,#62);
#55=LINE('',#315,#63);
#56=LINE('',#324,#64);
#57=LINE('',#329,#65);
#58=LINE('',#332,#66);
#59=LINE('',#343,#67);
#60=VECTOR('',#235,4.55);
#61=VECTOR('',#244,4.75);
#62=VECTOR('',#249,3.15);
#63=VECTOR('',#256,3.55);
#64=VECTOR('',#267,3.15);
#65=VECTOR('',#274,2.75);
#66=VECTOR('',#277,3.55);
#67=VECTOR('',#292,1.675);
#68=CIRCLE('',#203,4.35);
#69=CIRCLE('',#204,4.75);
#70=CIRCLE('',#207,4.75);
#71=CIRCLE('',#209,2.75);
#72=CIRCLE('',#210,3.55);
#73=CIRCLE('',#211,2.75);
#74=CIRCLE('',#213,3.55);
#75=CIRCLE('',#216,2.75);
#76=CIRCLE('',#217,2.75);
#77=CIRCLE('',#218,3.55);
#78=CIRCLE('',#219,3.55);
#79=CIRCLE('',#222,3.55);
#80=CIRCLE('',#223,3.55);
#81=CIRCLE('',#225,1.675);
#82=CIRCLE('',#227,1.675);
#83=VERTEX_POINT('',#295);
#84=VERTEX_POINT('',#297);
#85=VERTEX_POINT('',#302);
#86=VERTEX_POINT('',#306);
#87=VERTEX_POINT('',#307);
#88=VERTEX_POINT('',#309);
#89=VERTEX_POINT('',#314);
#90=VERTEX_POINT('',#319);
#91=VERTEX_POINT('',#320);
#92=VERTEX_POINT('',#323);
#93=VERTEX_POINT('',#325);
#94=VERTEX_POINT('',#331);
#95=VERTEX_POINT('',#333);
#96=VERTEX_POINT('',#337);
#97=VERTEX_POINT('',#340);
#98=EDGE_CURVE('',#83,#83,#68,.T.);
#99=EDGE_CURVE('',#83,#84,#52,.T.);
#100=EDGE_CURVE('',#84,#84,#69,.T.);
#101=EDGE_CURVE('',#85,#85,#70,.T.);
#102=EDGE_CURVE('',#85,#84,#53,.T.);
#103=EDGE_CURVE('',#86,#87,#71,.T.);
#104=EDGE_CURVE('',#86,#88,#54,.T.);
#105=EDGE_CURVE('',#88,#88,#72,.T.);
#106=EDGE_CURVE('',#87,#86,#73,.T.);
#107=EDGE_CURVE('',#88,#89,#55,.T.);
#108=EDGE_CURVE('',#89,#89,#74,.T.);
#109=EDGE_CURVE('',#90,#91,#75,.T.);
#110=EDGE_CURVE('',#91,#90,#76,.T.);
#111=EDGE_CURVE('',#90,#92,#56,.T.);
#112=EDGE_CURVE('',#92,#93,#77,.T.);
#113=EDGE_CURVE('',#93,#92,#78,.T.);
#114=EDGE_CURVE('',#91,#87,#57,.T.);
#115=EDGE_CURVE('',#93,#94,#58,.T.);
#116=EDGE_CURVE('',#95,#94,#79,.T.);
#117=EDGE_CURVE('',#94,#95,#80,.T.);
#118=EDGE_CURVE('',#96,#96,#81,.T.);
#119=EDGE_CURVE('',#97,#97,#82,.T.);
#120=EDGE_CURVE('',#96,#97,#59,.T.);
#121=ORIENTED_EDGE('',*,*,#98,.T.);
#122=ORIENTED_EDGE('',*,*,#99,.T.);
#123=ORIENTED_EDGE('',*,*,#100,.T.);
#124=ORIENTED_EDGE('',*,*,#99,.F.);
#125=ORIENTED_EDGE('',*,*,#98,.F.);
#126=ORIENTED_EDGE('',*,*,#101,.T.);
#127=ORIENTED_EDGE('',*,*,#102,.T.);
#128=ORIENTED_EDGE('',*,*,#100,.F.);
#129=ORIENTED_EDGE('',*,*,#102,.F.);
#130=ORIENTED_EDGE('',*,*,#103,.F.);
#131=ORIENTED_EDGE('',*,*,#104,.T.);
#132=ORIENTED_EDGE('',*,*,#105,.T.);
#133=ORIENTED_EDGE('',*,*,#104,.F.);
#134=ORIENTED_EDGE('',*,*,#106,.F.);
#135=ORIENTED_EDGE('',*,*,#105,.F.);
#136=ORIENTED_EDGE('',*,*,#107,.T.);
#137=ORIENTED_EDGE('',*,*,#108,.T.);
#138=ORIENTED_EDGE('',*,*,#107,.F.);
#139=ORIENTED_EDGE('',*,*,#101,.F.);
#140=ORIENTED_EDGE('',*,*,#108,.F.);
#141=ORIENTED_EDGE('',*,*,#109,.T.);
#142=ORIENTED_EDGE('',*,*,#110,.T.);
#143=ORIENTED_EDGE('',*,*,#111,.T.);
#144=ORIENTED_EDGE('',*,*,#112,.T.);
#145=ORIENTED_EDGE('',*,*,#113,.T.);
#146=ORIENTED_EDGE('',*,*,#111,.F.);
#147=ORIENTED_EDGE('',*,*,#109,.F.);
#148=ORIENTED_EDGE('',*,*,#110,.F.);
#149=ORIENTED_EDGE('',*,*,#114,.T.);
#150=ORIENTED_EDGE('',*,*,#106,.T.);
#151=ORIENTED_EDGE('',*,*,#103,.T.);
#152=ORIENTED_EDGE('',*,*,#114,.F.);
#153=ORIENTED_EDGE('',*,*,#112,.F.);
#154=ORIENTED_EDGE('',*,*,#113,.F.);
#155=ORIENTED_EDGE('',*,*,#115,.T.);
#156=ORIENTED_EDGE('',*,*,#116,.F.);
#157=ORIENTED_EDGE('',*,*,#117,.F.);
#158=ORIENTED_EDGE('',*,*,#115,.F.);
#159=ORIENTED_EDGE('',*,*,#116,.T.);
#160=ORIENTED_EDGE('',*,*,#117,.T.);
#161=ORIENTED_EDGE('',*,*,#118,.T.);
#162=ORIENTED_EDGE('',*,*,#119,.F.);
#163=ORIENTED_EDGE('',*,*,#118,.F.);
#164=ORIENTED_EDGE('',*,*,#120,.T.);
#165=ORIENTED_EDGE('',*,*,#119,.T.);
#166=ORIENTED_EDGE('',*,*,#120,.F.);
#167=CONICAL_SURFACE('',#202,4.55,0.785398163397449);
#168=CONICAL_SURFACE('',#208,3.15,0.785398163397449);
#169=CONICAL_SURFACE('',#215,3.15,0.785398163397449);
#170=ADVANCED_FACE('',(#26),#167,.T.);
#171=ADVANCED_FACE('',(#27),#22,.T.);
#172=ADVANCED_FACE('',(#28),#17,.T.);
#173=ADVANCED_FACE('',(#29),#168,.T.);
#174=ADVANCED_FACE('',(#30),#18,.T.);
#175=ADVANCED_FACE('',(#31,#15),#23,.T.);
#176=ADVANCED_FACE('',(#32),#169,.T.);
#177=ADVANCED_FACE('',(#33),#19,.T.);
#178=ADVANCED_FACE('',(#34),#20,.T.);
#179=ADVANCED_FACE('',(#35,#16),#24,.T.);
#180=ADVANCED_FACE('',(#36),#25,.F.);
#181=ADVANCED_FACE('',(#37),#21,.F.);
#182=CLOSED_SHELL('',(#170,#171,#172,#173,#174,#175,#176,#177,#178,#179,
#180,#181));
#183=DERIVED_UNIT_ELEMENT(#185,1.);
#184=DERIVED_UNIT_ELEMENT(#349,3.);
#185=(
MASS_UNIT()
NAMED_UNIT(*)
SI_UNIT($,.GRAM.)
);
#186=DERIVED_UNIT((#183,#184));
#187=MEASURE_REPRESENTATION_ITEM('density measure',
POSITIVE_RATIO_MEASURE(1.),#186);
#188=PROPERTY_DEFINITION_REPRESENTATION(#193,#190);
#189=PROPERTY_DEFINITION_REPRESENTATION(#194,#191);
#190=REPRESENTATION('material name',(#192),#346);
#191=REPRESENTATION('density',(#187),#346);
#192=DESCRIPTIVE_REPRESENTATION_ITEM('Generic','Generic');
#193=PROPERTY_DEFINITION('material property','material name',#356);
#194=PROPERTY_DEFINITION('material property','density of part',#356);
#195=DATE_TIME_ROLE('creation_date');
#196=APPLIED_DATE_AND_TIME_ASSIGNMENT(#197,#195,(#356));
#197=DATE_AND_TIME(#198,#199);
#198=CALENDAR_DATE(2019,2,9);
#199=LOCAL_TIME(23,36,50.,#200);
#200=COORDINATED_UNIVERSAL_TIME_OFFSET(0,0,.BEHIND.);
#201=AXIS2_PLACEMENT_3D('placement',#293,#229,#230);
#202=AXIS2_PLACEMENT_3D('',#294,#231,#232);
#203=AXIS2_PLACEMENT_3D('',#296,#233,#234);
#204=AXIS2_PLACEMENT_3D('',#299,#236,#237);
#205=AXIS2_PLACEMENT_3D('',#300,#238,#239);
#206=AXIS2_PLACEMENT_3D('',#301,#240,#241);
#207=AXIS2_PLACEMENT_3D('',#303,#242,#243);
#208=AXIS2_PLACEMENT_3D('',#305,#245,#246);
#209=AXIS2_PLACEMENT_3D('',#308,#247,#248);
#210=AXIS2_PLACEMENT_3D('',#311,#250,#251);
#211=AXIS2_PLACEMENT_3D('',#312,#252,#253);
#212=AXIS2_PLACEMENT_3D('',#313,#254,#255);
#213=AXIS2_PLACEMENT_3D('',#316,#257,#258);
#214=AXIS2_PLACEMENT_3D('',#317,#259,#260);
#215=AXIS2_PLACEMENT_3D('',#318,#261,#262);
#216=AXIS2_PLACEMENT_3D('',#321,#263,#264);
#217=AXIS2_PLACEMENT_3D('',#322,#265,#266);
#218=AXIS2_PLACEMENT_3D('',#326,#268,#269);
#219=AXIS2_PLACEMENT_3D('',#327,#270,#271);
#220=AXIS2_PLACEMENT_3D('',#328,#272,#273);
#221=AXIS2_PLACEMENT_3D('',#330,#275,#276);
#222=AXIS2_PLACEMENT_3D('',#334,#278,#279);
#223=AXIS2_PLACEMENT_3D('',#335,#280,#281);
#224=AXIS2_PLACEMENT_3D('',#336,#282,#283);
#225=AXIS2_PLACEMENT_3D('',#338,#284,#285);
#226=AXIS2_PLACEMENT_3D('',#339,#286,#287);
#227=AXIS2_PLACEMENT_3D('',#341,#288,#289);
#228=AXIS2_PLACEMENT_3D('',#342,#290,#291);
#229=DIRECTION('axis',(0.,0.,1.));
#230=DIRECTION('refdir',(1.,0.,0.));
#231=DIRECTION('center_axis',(0.,0.,1.));
#232=DIRECTION('ref_axis',(-1.,0.,0.));
#233=DIRECTION('center_axis',(0.,0.,1.));
#234=DIRECTION('ref_axis',(-1.,0.,0.));
#235=DIRECTION('',(0.707106781186548,-8.65956056235494E-17,0.707106781186547));
#236=DIRECTION('center_axis',(0.,0.,-1.));
#237=DIRECTION('ref_axis',(-1.,0.,0.));
#238=DIRECTION('center_axis',(0.,0.,-1.));
#239=DIRECTION('ref_axis',(-1.,0.,0.));
#240=DIRECTION('center_axis',(0.,0.,1.));
#241=DIRECTION('ref_axis',(-1.,0.,0.));
#242=DIRECTION('center_axis',(0.,0.,-1.));
#243=DIRECTION('ref_axis',(-1.,0.,0.));
#244=DIRECTION('',(0.,0.,-1.));
#245=DIRECTION('center_axis',(0.,0.,-1.));
#246=DIRECTION('ref_axis',(-1.,0.,0.));
#247=DIRECTION('center_axis',(0.,0.,1.));
#248=DIRECTION('ref_axis',(0.77138921583987,-0.636363636363636,0.));
#249=DIRECTION('',(0.707106781186548,8.65956056235494E-17,-0.707106781186547));
#250=DIRECTION('center_axis',(0.,0.,1.));
#251=DIRECTION('ref_axis',(-1.,0.,0.));
#252=DIRECTION('center_axis',(0.,0.,1.));
#253=DIRECTION('ref_axis',(0.77138921583987,-0.636363636363636,0.));
#254=DIRECTION('center_axis',(0.,0.,-1.));
#255=DIRECTION('ref_axis',(-1.,0.,0.));
#256=DIRECTION('',(0.,0.,-1.));
#257=DIRECTION('center_axis',(0.,0.,1.));
#258=DIRECTION('ref_axis',(-1.,0.,0.));
#259=DIRECTION('center_axis',(0.,0.,1.));
#260=DIRECTION('ref_axis',(1.,0.,0.));
#261=DIRECTION('center_axis',(0.,0.,1.));
#262=DIRECTION('ref_axis',(-0.77138921583987,0.636363636363636,0.));
#263=DIRECTION('center_axis',(0.,0.,1.));
#264=DIRECTION('ref_axis',(-0.77138921583987,0.636363636363636,0.));
#265=DIRECTION('center_axis',(0.,0.,1.));
#266=DIRECTION('ref_axis',(-0.77138921583987,0.636363636363636,0.));
#267=DIRECTION('',(0.545454545454545,-0.449977042573258,0.707106781186547));
#268=DIRECTION('center_axis',(0.,0.,-1.));
#269=DIRECTION('ref_axis',(1.,0.,0.));
#270=DIRECTION('center_axis',(0.,0.,-1.));
#271=DIRECTION('ref_axis',(1.,0.,0.));
#272=DIRECTION('center_axis',(0.,0.,1.));
#273=DIRECTION('ref_axis',(0.77138921583987,-0.636363636363636,0.));
#274=DIRECTION('',(0.,0.,-1.));
#275=DIRECTION('center_axis',(0.,0.,-1.));
#276=DIRECTION('ref_axis',(1.,0.,0.));
#277=DIRECTION('',(0.,0.,1.));
#278=DIRECTION('center_axis',(0.,0.,1.));
#279=DIRECTION('ref_axis',(1.,0.,0.));
#280=DIRECTION('center_axis',(0.,0.,1.));
#281=DIRECTION('ref_axis',(1.,0.,0.));
#282=DIRECTION('center_axis',(0.,0.,1.));
#283=DIRECTION('ref_axis',(1.,0.,0.));
#284=DIRECTION('center_axis',(0.,0.,-1.));
#285=DIRECTION('ref_axis',(-1.,0.,0.));
#286=DIRECTION('center_axis',(0.,0.,-1.));
#287=DIRECTION('ref_axis',(-1.,0.,0.));
#288=DIRECTION('center_axis',(0.,0.,-1.));
#289=DIRECTION('ref_axis',(-1.,0.,0.));
#290=DIRECTION('center_axis',(0.,0.,1.));
#291=DIRECTION('ref_axis',(-1.,0.,0.));
#292=DIRECTION('',(0.,0.,-1.));
#293=CARTESIAN_POINT('',(0.,0.,0.));
#294=CARTESIAN_POINT('Origin',(0.,0.,-0.8));
#295=CARTESIAN_POINT('',(4.35,5.32721357629099E-16,-1.));
#296=CARTESIAN_POINT('Origin',(0.,0.,-1.));
#297=CARTESIAN_POINT('',(4.75,-5.81707229594993E-16,-0.6));
#298=CARTESIAN_POINT('',(4.55,-5.57214293612046E-16,-0.8));
#299=CARTESIAN_POINT('Origin',(0.,0.,-0.6));
#300=CARTESIAN_POINT('Origin',(5.55111512312578E-16,-1.,-1.));
#301=CARTESIAN_POINT('Origin',(0.,0.,-1.));
#302=CARTESIAN_POINT('',(4.75,-1.38777878078145E-16,6.2));
#303=CARTESIAN_POINT('Origin',(0.,0.,6.2));
#304=CARTESIAN_POINT('',(4.75,5.81707229594993E-16,-1.));
#305=CARTESIAN_POINT('Origin',(5.55111512312578E-16,-1.38777878078145E-16,
8.8));
#306=CARTESIAN_POINT('',(2.75,3.36777869765522E-16,9.2));
#307=CARTESIAN_POINT('',(-2.12132034355964,1.75,9.2));
#308=CARTESIAN_POINT('Origin',(0.,0.,9.2));
#309=CARTESIAN_POINT('',(3.55,2.95971735619166E-16,8.4));
#310=CARTESIAN_POINT('',(3.15,2.46985863653272E-16,8.8));
#311=CARTESIAN_POINT('Origin',(5.55111512312578E-16,-1.38777878078145E-16,
8.4));
#312=CARTESIAN_POINT('Origin',(0.,0.,9.2));
#313=CARTESIAN_POINT('Origin',(5.55111512312578E-16,-1.38777878078145E-16,
9.2));
#314=CARTESIAN_POINT('',(3.55,2.95971735619166E-16,6.2));
#315=CARTESIAN_POINT('',(3.55,-5.73527491775455E-16,9.2));
#316=CARTESIAN_POINT('Origin',(5.55111512312578E-16,-1.38777878078145E-16,
6.2));
#317=CARTESIAN_POINT('Origin',(5.55111512312578E-16,0.,6.2));
#318=CARTESIAN_POINT('Origin',(0.,0.,12.02));
#319=CARTESIAN_POINT('',(2.12132034355964,-1.75,11.62));
#320=CARTESIAN_POINT('',(-2.12132034355964,1.75,11.62));
#321=CARTESIAN_POINT('Origin',(0.,0.,11.62));
#322=CARTESIAN_POINT('Origin',(0.,0.,11.62));
#323=CARTESIAN_POINT('',(2.73843171623154,-2.25909090909091,12.42));
#324=CARTESIAN_POINT('',(2.42987602989559,-2.00454545454546,12.02));
#325=CARTESIAN_POINT('',(-3.55,4.3474961369731E-16,12.42));
#326=CARTESIAN_POINT('Origin',(0.,0.,12.42));
#327=CARTESIAN_POINT('Origin',(0.,0.,12.42));
#328=CARTESIAN_POINT('Origin',(0.,0.,0.));
#329=CARTESIAN_POINT('',(-2.12132034355964,1.75,0.));
#330=CARTESIAN_POINT('Origin',(0.,0.,13.42));
#331=CARTESIAN_POINT('',(-3.55,4.3474961369731E-16,13.42));
#332=CARTESIAN_POINT('',(-3.55,4.3474961369731E-16,13.42));
#333=CARTESIAN_POINT('',(3.55,0.,13.42));
#334=CARTESIAN_POINT('Origin',(0.,0.,13.42));
#335=CARTESIAN_POINT('Origin',(0.,0.,13.42));
#336=CARTESIAN_POINT('Origin',(0.,0.,13.42));
#337=CARTESIAN_POINT('',(1.675,2.77555756156289E-16,13.42));
#338=CARTESIAN_POINT('Origin',(0.,0.,13.42));
#339=CARTESIAN_POINT('Origin',(5.55111512312578E-16,-1.,0.));
#340=CARTESIAN_POINT('',(1.675,2.05128338857182E-16,0.));
#341=CARTESIAN_POINT('Origin',(0.,0.,0.));
#342=CARTESIAN_POINT('Origin',(0.,0.,0.));
#343=CARTESIAN_POINT('',(1.675,2.05128338857182E-16,0.));
#344=UNCERTAINTY_MEASURE_WITH_UNIT(LENGTH_MEASURE(0.01),#348,
'DISTANCE_ACCURACY_VALUE',
'Maximum model space distance between geometric entities at asserted c
onnectivities');
#345=UNCERTAINTY_MEASURE_WITH_UNIT(LENGTH_MEASURE(0.01),#348,
'DISTANCE_ACCURACY_VALUE',
'Maximum model space distance between geometric entities at asserted c
onnectivities');
#346=(
GEOMETRIC_REPRESENTATION_CONTEXT(3)
GLOBAL_UNCERTAINTY_ASSIGNED_CONTEXT((#344))
GLOBAL_UNIT_ASSIGNED_CONTEXT((#348,#350,#351))
REPRESENTATION_CONTEXT('','3D')
);
#347=(
GEOMETRIC_REPRESENTATION_CONTEXT(3)
GLOBAL_UNCERTAINTY_ASSIGNED_CONTEXT((#345))
GLOBAL_UNIT_ASSIGNED_CONTEXT((#348,#350,#351))
REPRESENTATION_CONTEXT('','3D')
);
#348=(
LENGTH_UNIT()
NAMED_UNIT(*)
SI_UNIT(.MILLI.,.METRE.)
);
#349=(
LENGTH_UNIT()
NAMED_UNIT(*)
SI_UNIT(.CENTI.,.METRE.)
);
#350=(
NAMED_UNIT(*)
PLANE_ANGLE_UNIT()
SI_UNIT($,.RADIAN.)
);
#351=(
NAMED_UNIT(*)
SI_UNIT($,.STERADIAN.)
SOLID_ANGLE_UNIT()
);
#352=SHAPE_DEFINITION_REPRESENTATION(#353,#354);
#353=PRODUCT_DEFINITION_SHAPE('',$,#356);
#354=SHAPE_REPRESENTATION('',(#201),#346);
#355=PRODUCT_DEFINITION_CONTEXT('part definition',#360,'design');
#356=PRODUCT_DEFINITION('ScrollWheelHolder','ScrollWheelHolder',#357,#355);
#357=PRODUCT_DEFINITION_FORMATION('',$,#362);
#358=PRODUCT_RELATED_PRODUCT_CATEGORY('ScrollWheelHolder',
'ScrollWheelHolder',(#362));
#359=APPLICATION_PROTOCOL_DEFINITION('international standard',
'automotive_design',2009,#360);
#360=APPLICATION_CONTEXT(
'Core Data for Automotive Mechanical Design Process');
#361=PRODUCT_CONTEXT('part definition',#360,'mechanical');
#362=PRODUCT('ScrollWheelHolder','ScrollWheelHolder',$,(#361));
#363=PRESENTATION_STYLE_ASSIGNMENT((#364));
#364=SURFACE_STYLE_USAGE(.BOTH.,#367);
#365=SURFACE_STYLE_RENDERING_WITH_PROPERTIES($,#371,(#366));
#366=SURFACE_STYLE_TRANSPARENT(0.);
#367=SURFACE_SIDE_STYLE('',(#368,#365));
#368=SURFACE_STYLE_FILL_AREA(#369);
#369=FILL_AREA_STYLE('',(#370));
#370=FILL_AREA_STYLE_COLOUR('',#371);
#371=COLOUR_RGB('',0.749019607843137,0.749019607843137,0.749019607843137);
ENDSEC;
END-ISO-10303-21;
