ISO-10303-21;
HEADER;
/* Generated by software containing ST-Developer
 * from STEP Tools, Inc. (www.steptools.com) 
 */

FILE_DESCRIPTION(
/* description */ (
'This documentation describes Open Hardware and is licensed under the 
CERN OHL v. 1.2.  You may redistribute and modify this documentation u
nder the terms of the CERN OHL v.1.2. (http://ohwr.org/cernohl).  This
 documentation is distributed WITHOUT ANY EXPRE',
'CAx-IF Rec.Pracs.---Representation and Presentation of Product Manufa
cturing Information (PMI)---4.0---2014-10-13'),
/* implementation_level */ '2;1');

FILE_NAME(
/* name */ 'MTBE-006.stp',
/* time_stamp */ '2019-10-08T04:21:43-04:00',
/* author */ (' '),
/* organization */ ('PloopyCo'),
/* preprocessor_version */ 'ST-DEVELOPER v18',
/* originating_system */ ' ',
/* authorisation */ 
'Copyright PloopyCo 2019. Licensed under CERN OHL v. 1.2.');

FILE_SCHEMA (('AP242_MANAGED_MODEL_BASED_3D_ENGINEERING_MIM_LF { 1 0 10303 442 1 1 4 }'));
ENDSEC;

DATA;
#10=MECHANICAL_DESIGN_AND_DRAUGHTING_RELATIONSHIP('Isometric','',#24,#25);
#11=MECHANICAL_DESIGN_AND_DRAUGHTING_RELATIONSHIP('Front','',#26,#25);
#12=MECHANICAL_DESIGN_AND_DRAUGHTING_RELATIONSHIP('Top','',#27,#25);
#13=MECHANICAL_DESIGN_AND_DRAUGHTING_RELATIONSHIP('Right','',#28,#25);
#14=MAPPED_ITEM('',#19,#139);
#15=MAPPED_ITEM('',#20,#140);
#16=MAPPED_ITEM('',#21,#141);
#17=MAPPED_ITEM('',#22,#142);
#18=MAPPED_ITEM('',#23,#143);
#19=REPRESENTATION_MAP(#139,#43);
#20=REPRESENTATION_MAP(#140,#237);
#21=REPRESENTATION_MAP(#141,#43);
#22=REPRESENTATION_MAP(#142,#43);
#23=REPRESENTATION_MAP(#143,#43);
#24=DRAUGHTING_MODEL('Isometric',(#14,#30),#229);
#25=DRAUGHTING_MODEL('',(#15,#140),#229);
#26=DRAUGHTING_MODEL('Front',(#16,#31),#229);
#27=DRAUGHTING_MODEL('Top',(#17,#32),#229);
#28=DRAUGHTING_MODEL('Right',(#18,#33),#229);
#29=MECHANICAL_DESIGN_GEOMETRIC_PRESENTATION_REPRESENTATION('',(#44),#230);
#30=CAMERA_MODEL_D3('Isometric',#131,#34);
#31=CAMERA_MODEL_D3('Front',#133,#35);
#32=CAMERA_MODEL_D3('Top',#135,#36);
#33=CAMERA_MODEL_D3('Right',#137,#37);
#34=VIEW_VOLUME(.PARALLEL.,#212,16.9875424688562,0.,.F.,0.,.F.,.F.,#38);
#35=VIEW_VOLUME(.PARALLEL.,#215,117.693146607172,0.,.F.,0.,.F.,.F.,#39);
#36=VIEW_VOLUME(.PARALLEL.,#218,117.693146607172,0.,.F.,0.,.F.,.F.,#40);
#37=VIEW_VOLUME(.PARALLEL.,#221,117.693146607172,0.,.F.,0.,.F.,.F.,#41);
#38=PLANAR_BOX('view window',0.,0.,#132);
#39=PLANAR_BOX('view window',0.,0.,#134);
#40=PLANAR_BOX('view window',0.,0.,#136);
#41=PLANAR_BOX('view window',0.,0.,#138);
#42=SHAPE_REPRESENTATION_RELATIONSHIP('SRR','None',#237,#43);
#43=ADVANCED_BREP_SHAPE_REPRESENTATION('',(#46),#229);
#44=STYLED_ITEM('',(#246),#46);
#45=STYLED_ITEM('',(#247),#15);
#46=MANIFOLD_SOLID_BREP('Solid1',#102);
#47=PLANE('',#127);
#48=PLANE('',#130);
#49=CYLINDRICAL_SURFACE('',#125,1.515);
#50=FACE_OUTER_BOUND('',#55,.T.);
#51=FACE_OUTER_BOUND('',#56,.T.);
#52=FACE_OUTER_BOUND('',#57,.T.);
#53=FACE_OUTER_BOUND('',#58,.T.);
#54=FACE_OUTER_BOUND('',#59,.T.);
#55=EDGE_LOOP('',(#81,#82,#83,#84));
#56=EDGE_LOOP('',(#85,#86,#87,#88));
#57=EDGE_LOOP('',(#89));
#58=EDGE_LOOP('',(#90,#91,#92,#93));
#59=EDGE_LOOP('',(#94));
#60=LINE('',#198,#63);
#61=LINE('',#203,#64);
#62=LINE('',#208,#65);
#63=VECTOR('',#150,1.365);
#64=VECTOR('',#157,1.515);
#65=VECTOR('',#164,1.365);
#66=CIRCLE('',#123,1.515);
#67=CIRCLE('',#124,1.215);
#68=CIRCLE('',#126,1.515);
#69=CIRCLE('',#129,1.215);
#70=VERTEX_POINT('',#195);
#71=VERTEX_POINT('',#197);
#72=VERTEX_POINT('',#201);
#73=VERTEX_POINT('',#206);
#74=EDGE_CURVE('',#70,#70,#66,.T.);
#75=EDGE_CURVE('',#70,#71,#60,.T.);
#76=EDGE_CURVE('',#71,#71,#67,.T.);
#77=EDGE_CURVE('',#72,#72,#68,.T.);
#78=EDGE_CURVE('',#72,#70,#61,.T.);
#79=EDGE_CURVE('',#73,#73,#69,.T.);
#80=EDGE_CURVE('',#73,#72,#62,.T.);
#81=ORIENTED_EDGE('',*,*,#74,.T.);
#82=ORIENTED_EDGE('',*,*,#75,.T.);
#83=ORIENTED_EDGE('',*,*,#76,.T.);
#84=ORIENTED_EDGE('',*,*,#75,.F.);
#85=ORIENTED_EDGE('',*,*,#77,.F.);
#86=ORIENTED_EDGE('',*,*,#78,.T.);
#87=ORIENTED_EDGE('',*,*,#74,.F.);
#88=ORIENTED_EDGE('',*,*,#78,.F.);
#89=ORIENTED_EDGE('',*,*,#76,.F.);
#90=ORIENTED_EDGE('',*,*,#79,.T.);
#91=ORIENTED_EDGE('',*,*,#80,.T.);
#92=ORIENTED_EDGE('',*,*,#77,.T.);
#93=ORIENTED_EDGE('',*,*,#80,.F.);
#94=ORIENTED_EDGE('',*,*,#79,.F.);
#95=CONICAL_SURFACE('',#122,1.365,0.785398163397448);
#96=CONICAL_SURFACE('',#128,1.365,0.785398163397448);
#97=ADVANCED_FACE('',(#50),#95,.T.);
#98=ADVANCED_FACE('',(#51),#49,.T.);
#99=ADVANCED_FACE('',(#52),#47,.F.);
#100=ADVANCED_FACE('',(#53),#96,.T.);
#101=ADVANCED_FACE('',(#54),#48,.T.);
#102=CLOSED_SHELL('',(#97,#98,#99,#100,#101));
#103=DERIVED_UNIT_ELEMENT(#105,1.);
#104=DERIVED_UNIT_ELEMENT(#232,3.);
#105=(
MASS_UNIT()
NAMED_UNIT(*)
SI_UNIT($,.GRAM.)
);
#106=DERIVED_UNIT((#103,#104));
#107=MEASURE_REPRESENTATION_ITEM('density measure',
POSITIVE_RATIO_MEASURE(1.),#106);
#108=PROPERTY_DEFINITION_REPRESENTATION(#113,#110);
#109=PROPERTY_DEFINITION_REPRESENTATION(#114,#111);
#110=REPRESENTATION('material name',(#112),#229);
#111=REPRESENTATION('density',(#107),#229);
#112=DESCRIPTIVE_REPRESENTATION_ITEM('Generic','Generic');
#113=PROPERTY_DEFINITION('material property','material name',#239);
#114=PROPERTY_DEFINITION('material property','density of part',#239);
#115=DATE_TIME_ROLE('creation_date');
#116=APPLIED_DATE_AND_TIME_ASSIGNMENT(#117,#115,(#239));
#117=DATE_AND_TIME(#118,#119);
#118=CALENDAR_DATE(2019,8,9);
#119=LOCAL_TIME(3,35,44.,#120);
#120=COORDINATED_UNIVERSAL_TIME_OFFSET(0,0,.BEHIND.);
#121=AXIS2_PLACEMENT_3D('placement',#193,#144,#145);
#122=AXIS2_PLACEMENT_3D('',#194,#146,#147);
#123=AXIS2_PLACEMENT_3D('',#196,#148,#149);
#124=AXIS2_PLACEMENT_3D('',#199,#151,#152);
#125=AXIS2_PLACEMENT_3D('',#200,#153,#154);
#126=AXIS2_PLACEMENT_3D('',#202,#155,#156);
#127=AXIS2_PLACEMENT_3D('',#204,#158,#159);
#128=AXIS2_PLACEMENT_3D('',#205,#160,#161);
#129=AXIS2_PLACEMENT_3D('',#207,#162,#163);
#130=AXIS2_PLACEMENT_3D('',#209,#165,#166);
#131=AXIS2_PLACEMENT_3D('view reference',#210,#167,#168);
#132=AXIS2_PLACEMENT_3D('view window',#211,#169,#170);
#133=AXIS2_PLACEMENT_3D('view reference',#213,#171,#172);
#134=AXIS2_PLACEMENT_3D('view window',#214,#173,#174);
#135=AXIS2_PLACEMENT_3D('view reference',#216,#175,#176);
#136=AXIS2_PLACEMENT_3D('view window',#217,#177,#178);
#137=AXIS2_PLACEMENT_3D('view reference',#219,#179,#180);
#138=AXIS2_PLACEMENT_3D('view window',#220,#181,#182);
#139=AXIS2_PLACEMENT_3D('',#222,#183,#184);
#140=AXIS2_PLACEMENT_3D('',#223,#185,#186);
#141=AXIS2_PLACEMENT_3D('',#224,#187,#188);
#142=AXIS2_PLACEMENT_3D('',#225,#189,#190);
#143=AXIS2_PLACEMENT_3D('',#226,#191,#192);
#144=DIRECTION('axis',(0.,0.,1.));
#145=DIRECTION('refdir',(1.,0.,0.));
#146=DIRECTION('center_axis',(0.,0.,1.));
#147=DIRECTION('ref_axis',(1.,0.,0.));
#148=DIRECTION('center_axis',(0.,0.,-1.));
#149=DIRECTION('ref_axis',(1.,0.,0.));
#150=DIRECTION('',(0.707106781186548,8.65956056235493E-17,-0.707106781186548));
#151=DIRECTION('center_axis',(0.,0.,1.));
#152=DIRECTION('ref_axis',(1.,0.,0.));
#153=DIRECTION('center_axis',(0.,0.,1.));
#154=DIRECTION('ref_axis',(1.,0.,0.));
#155=DIRECTION('center_axis',(0.,0.,1.));
#156=DIRECTION('ref_axis',(1.,0.,0.));
#157=DIRECTION('',(0.,0.,-1.));
#158=DIRECTION('center_axis',(0.,0.,1.));
#159=DIRECTION('ref_axis',(1.,0.,0.));
#160=DIRECTION('center_axis',(0.,0.,-1.));
#161=DIRECTION('ref_axis',(1.,0.,0.));
#162=DIRECTION('center_axis',(0.,0.,-1.));
#163=DIRECTION('ref_axis',(1.,0.,0.));
#164=DIRECTION('',(-0.707106781186547,-8.65956056235493E-17,-0.707106781186548));
#165=DIRECTION('center_axis',(0.,0.,1.));
#166=DIRECTION('ref_axis',(1.,0.,0.));
#167=DIRECTION('center_axis',(-0.577350269189626,0.577350269189626,-0.577350269189626));
#168=DIRECTION('ref_axis',(-0.707106781186548,-0.707106781186548,0.));
#169=DIRECTION('center_axis',(0.,0.,1.));
#170=DIRECTION('ref_axis',(1.,0.,0.));
#171=DIRECTION('center_axis',(-2.22044604925031E-16,0.,-1.));
#172=DIRECTION('ref_axis',(-1.,0.,2.22044604925031E-16));
#173=DIRECTION('center_axis',(0.,0.,1.));
#174=DIRECTION('ref_axis',(1.,0.,0.));
#175=DIRECTION('center_axis',(0.,-1.,0.));
#176=DIRECTION('ref_axis',(-1.,0.,0.));
#177=DIRECTION('center_axis',(0.,0.,1.));
#178=DIRECTION('ref_axis',(1.,0.,0.));
#179=DIRECTION('center_axis',(-1.,0.,0.));
#180=DIRECTION('ref_axis',(0.,0.,1.));
#181=DIRECTION('center_axis',(0.,0.,1.));
#182=DIRECTION('ref_axis',(1.,0.,0.));
#183=DIRECTION('center_axis',(0.,0.,1.));
#184=DIRECTION('ref_axis',(1.,0.,0.));
#185=DIRECTION('center_axis',(0.,0.,1.));
#186=DIRECTION('ref_axis',(1.,0.,0.));
#187=DIRECTION('center_axis',(0.,0.,1.));
#188=DIRECTION('ref_axis',(1.,0.,0.));
#189=DIRECTION('center_axis',(0.,0.,1.));
#190=DIRECTION('ref_axis',(1.,0.,0.));
#191=DIRECTION('center_axis',(0.,0.,1.));
#192=DIRECTION('ref_axis',(1.,0.,0.));
#193=CARTESIAN_POINT('',(0.,0.,0.));
#194=CARTESIAN_POINT('Origin',(0.,0.,0.15));
#195=CARTESIAN_POINT('',(-1.515,1.85533990070824E-16,0.3));
#196=CARTESIAN_POINT('Origin',(0.,0.,0.3));
#197=CARTESIAN_POINT('',(-1.215,-1.48794586096403E-16,0.));
#198=CARTESIAN_POINT('',(-1.365,-1.67164288083614E-16,0.15));
#199=CARTESIAN_POINT('Origin',(0.,0.,0.));
#200=CARTESIAN_POINT('Origin',(0.,0.,0.));
#201=CARTESIAN_POINT('',(-1.515,-1.85533990070824E-16,6.9));
#202=CARTESIAN_POINT('Origin',(0.,0.,6.9));
#203=CARTESIAN_POINT('',(-1.515,-1.85533990070824E-16,0.));
#204=CARTESIAN_POINT('Origin',(0.,0.2575,0.));
#205=CARTESIAN_POINT('Origin',(0.,0.,7.05));
#206=CARTESIAN_POINT('',(-1.215,1.48794586096403E-16,7.2));
#207=CARTESIAN_POINT('Origin',(0.,0.,7.2));
#208=CARTESIAN_POINT('',(-1.365,-1.67164288083614E-16,7.05));
#209=CARTESIAN_POINT('Origin',(0.,0.2575,7.2));
#210=CARTESIAN_POINT('Origin',(9.80776221726431,-9.80776221726431,9.80776221726431));
#211=CARTESIAN_POINT('Origin',(0.,0.,16.9875424688562));
#212=CARTESIAN_POINT('',(0.,0.,0.));
#213=CARTESIAN_POINT('Origin',(2.61331282407732E-14,0.,117.693146607172));
#214=CARTESIAN_POINT('Origin',(0.,0.,117.693146607172));
#215=CARTESIAN_POINT('',(0.,0.,0.));
#216=CARTESIAN_POINT('Origin',(0.,117.693146607172,0.));
#217=CARTESIAN_POINT('Origin',(0.,0.,117.693146607172));
#218=CARTESIAN_POINT('',(0.,0.,0.));
#219=CARTESIAN_POINT('Origin',(117.693146607172,0.,0.));
#220=CARTESIAN_POINT('Origin',(0.,0.,117.693146607172));
#221=CARTESIAN_POINT('',(0.,0.,0.));
#222=CARTESIAN_POINT('Origin',(0.,0.,0.));
#223=CARTESIAN_POINT('Origin',(0.,0.,0.));
#224=CARTESIAN_POINT('Origin',(0.,0.,0.));
#225=CARTESIAN_POINT('Origin',(0.,0.,0.));
#226=CARTESIAN_POINT('Origin',(0.,0.,0.));
#227=UNCERTAINTY_MEASURE_WITH_UNIT(LENGTH_MEASURE(0.01),#231,
'DISTANCE_ACCURACY_VALUE',
'Maximum model space distance between geometric entities at asserted c
onnectivities');
#228=UNCERTAINTY_MEASURE_WITH_UNIT(LENGTH_MEASURE(0.01),#231,
'DISTANCE_ACCURACY_VALUE',
'Maximum model space distance between geometric entities at asserted c
onnectivities');
#229=(
GEOMETRIC_REPRESENTATION_CONTEXT(3)
GLOBAL_UNCERTAINTY_ASSIGNED_CONTEXT((#227))
GLOBAL_UNIT_ASSIGNED_CONTEXT((#231,#233,#234))
REPRESENTATION_CONTEXT('','3D')
);
#230=(
GEOMETRIC_REPRESENTATION_CONTEXT(3)
GLOBAL_UNCERTAINTY_ASSIGNED_CONTEXT((#228))
GLOBAL_UNIT_ASSIGNED_CONTEXT((#231,#233,#234))
REPRESENTATION_CONTEXT('','3D')
);
#231=(
LENGTH_UNIT()
NAMED_UNIT(*)
SI_UNIT(.MILLI.,.METRE.)
);
#232=(
LENGTH_UNIT()
NAMED_UNIT(*)
SI_UNIT(.CENTI.,.METRE.)
);
#233=(
NAMED_UNIT(*)
PLANE_ANGLE_UNIT()
SI_UNIT($,.RADIAN.)
);
#234=(
NAMED_UNIT(*)
SI_UNIT($,.STERADIAN.)
SOLID_ANGLE_UNIT()
);
#235=SHAPE_DEFINITION_REPRESENTATION(#236,#237);
#236=PRODUCT_DEFINITION_SHAPE('',$,#239);
#237=SHAPE_REPRESENTATION('',(#121),#229);
#238=PRODUCT_DEFINITION_CONTEXT('part definition',#243,'design');
#239=PRODUCT_DEFINITION('MTBE-006','MTBE-006',#240,#238);
#240=PRODUCT_DEFINITION_FORMATION('',$,#245);
#241=PRODUCT_RELATED_PRODUCT_CATEGORY('MTBE-006','MTBE-006',(#245));
#242=APPLICATION_PROTOCOL_DEFINITION('international standard',
'ap242_managed_model_based_3d_engineering',2011,#243);
#243=APPLICATION_CONTEXT('Managed model based 3d engineering');
#244=PRODUCT_CONTEXT('part definition',#243,'mechanical');
#245=PRODUCT('MTBE-006','MTBE-006',$,(#244));
#246=PRESENTATION_STYLE_ASSIGNMENT((#248));
#247=PRESENTATION_STYLE_ASSIGNMENT((NULL_STYLE(.NULL.)));
#248=SURFACE_STYLE_USAGE(.BOTH.,#251);
#249=SURFACE_STYLE_RENDERING_WITH_PROPERTIES($,#255,(#250));
#250=SURFACE_STYLE_TRANSPARENT(0.);
#251=SURFACE_SIDE_STYLE('',(#252,#249));
#252=SURFACE_STYLE_FILL_AREA(#253);
#253=FILL_AREA_STYLE('',(#254));
#254=FILL_AREA_STYLE_COLOUR('',#255);
#255=COLOUR_RGB('',0.749019607843137,0.749019607843137,0.749019607843137);
ENDSEC;
END-ISO-10303-21;
