ISO-10303-21;
HEADER;
/* Generated by software containing ST-Developer
 * from STEP Tools, Inc. (www.steptools.com) 
 */

FILE_DESCRIPTION(
/* description */ ('',
'CAx-IF Rec.Pracs.---Representation and Presentation of Product Manufa
cturing Information (PMI)---4.0---2014-10-13'),
/* implementation_level */ '2;1');

FILE_NAME(
/* name */ 
'ScrollWheelHolder.stp',
/* time_stamp */ '2019-10-14T23:54:47-04:00',
/* author */ (' '),
/* organization */ ('Ploopy Co'),
/* preprocessor_version */ 'ST-DEVELOPER v18',
/* originating_system */ ' ',
/* authorisation */ 
'Licensed under the CERN OHL v. 1.2. Copyright 2019.');

FILE_SCHEMA (('AP242_MANAGED_MODEL_BASED_3D_ENGINEERING_MIM_LF { 1 0 10303 442 1 1 4 }'));
ENDSEC;

DATA;
#10=MECHANICAL_DESIGN_AND_DRAUGHTING_RELATIONSHIP('Isometric','',#24,#25);
#11=MECHANICAL_DESIGN_AND_DRAUGHTING_RELATIONSHIP('Front','',#26,#25);
#12=MECHANICAL_DESIGN_AND_DRAUGHTING_RELATIONSHIP('Top','',#27,#25);
#13=MECHANICAL_DESIGN_AND_DRAUGHTING_RELATIONSHIP('Right','',#28,#25);
#14=MAPPED_ITEM('',#19,#259);
#15=MAPPED_ITEM('',#20,#260);
#16=MAPPED_ITEM('',#21,#261);
#17=MAPPED_ITEM('',#22,#262);
#18=MAPPED_ITEM('',#23,#263);
#19=REPRESENTATION_MAP(#259,#43);
#20=REPRESENTATION_MAP(#260,#427);
#21=REPRESENTATION_MAP(#261,#43);
#22=REPRESENTATION_MAP(#262,#43);
#23=REPRESENTATION_MAP(#263,#43);
#24=DRAUGHTING_MODEL('Isometric',(#14,#30),#419);
#25=DRAUGHTING_MODEL('',(#15,#260),#419);
#26=DRAUGHTING_MODEL('Front',(#16,#31),#419);
#27=DRAUGHTING_MODEL('Top',(#17,#32),#419);
#28=DRAUGHTING_MODEL('Right',(#18,#33),#419);
#29=MECHANICAL_DESIGN_GEOMETRIC_PRESENTATION_REPRESENTATION('',(#44),#420);
#30=CAMERA_MODEL_D3('Isometric',#251,#34);
#31=CAMERA_MODEL_D3('Front',#253,#35);
#32=CAMERA_MODEL_D3('Top',#255,#36);
#33=CAMERA_MODEL_D3('Right',#257,#37);
#34=VIEW_VOLUME(.PARALLEL.,#402,16.9875424688562,0.,.F.,0.,.F.,.F.,#38);
#35=VIEW_VOLUME(.PARALLEL.,#405,117.693146607172,0.,.F.,0.,.F.,.F.,#39);
#36=VIEW_VOLUME(.PARALLEL.,#408,117.693146607172,0.,.F.,0.,.F.,.F.,#40);
#37=VIEW_VOLUME(.PARALLEL.,#411,117.693146607172,0.,.F.,0.,.F.,.F.,#41);
#38=PLANAR_BOX('view window',0.,0.,#252);
#39=PLANAR_BOX('view window',0.,0.,#254);
#40=PLANAR_BOX('view window',0.,0.,#256);
#41=PLANAR_BOX('view window',0.,0.,#258);
#42=SHAPE_REPRESENTATION_RELATIONSHIP('SRR','None',#427,#43);
#43=ADVANCED_BREP_SHAPE_REPRESENTATION('',(#46),#419);
#44=STYLED_ITEM('',(#436),#46);
#45=STYLED_ITEM('',(#437),#15);
#46=MANIFOLD_SOLID_BREP('Solid1',#205);
#47=FACE_BOUND('',#72,.T.);
#48=FACE_BOUND('',#79,.T.);
#49=PLANE('',#231);
#50=PLANE('',#233);
#51=PLANE('',#246);
#52=PLANE('',#248);
#53=CYLINDRICAL_SURFACE('',#229,3.55);
#54=CYLINDRICAL_SURFACE('',#236,4.75);
#55=CYLINDRICAL_SURFACE('',#242,2.75);
#56=CYLINDRICAL_SURFACE('',#243,3.55);
#57=CYLINDRICAL_SURFACE('',#250,1.675);
#58=FACE_OUTER_BOUND('',#69,.T.);
#59=FACE_OUTER_BOUND('',#70,.T.);
#60=FACE_OUTER_BOUND('',#71,.T.);
#61=FACE_OUTER_BOUND('',#73,.T.);
#62=FACE_OUTER_BOUND('',#74,.T.);
#63=FACE_OUTER_BOUND('',#75,.T.);
#64=FACE_OUTER_BOUND('',#76,.T.);
#65=FACE_OUTER_BOUND('',#77,.T.);
#66=FACE_OUTER_BOUND('',#78,.T.);
#67=FACE_OUTER_BOUND('',#80,.T.);
#68=FACE_OUTER_BOUND('',#81,.T.);
#69=EDGE_LOOP('',(#148,#149,#150,#151,#152));
#70=EDGE_LOOP('',(#153,#154,#155,#156));
#71=EDGE_LOOP('',(#157));
#72=EDGE_LOOP('',(#158));
#73=EDGE_LOOP('',(#159,#160));
#74=EDGE_LOOP('',(#161,#162,#163,#164,#165));
#75=EDGE_LOOP('',(#166,#167,#168,#169,#170,#171));
#76=EDGE_LOOP('',(#172,#173,#174,#175,#176,#177));
#77=EDGE_LOOP('',(#178,#179,#180,#181,#182,#183));
#78=EDGE_LOOP('',(#184,#185));
#79=EDGE_LOOP('',(#186));
#80=EDGE_LOOP('',(#187));
#81=EDGE_LOOP('',(#188,#189,#190,#191));
#82=LINE('',#357,#89);
#83=LINE('',#362,#90);
#84=LINE('',#373,#91);
#85=LINE('',#380,#92);
#86=LINE('',#385,#93);
#87=LINE('',#388,#94);
#88=LINE('',#399,#95);
#89=VECTOR('',#270,3.15);
#90=VECTOR('',#277,3.55);
#91=VECTOR('',#292,4.75);
#92=VECTOR('',#299,3.15);
#93=VECTOR('',#306,2.75);
#94=VECTOR('',#309,3.55);
#95=VECTOR('',#324,1.675);
#96=CIRCLE('',#226,2.75);
#97=CIRCLE('',#227,3.55);
#98=CIRCLE('',#228,2.75);
#99=CIRCLE('',#230,3.55);
#100=CIRCLE('',#232,4.75);
#101=CIRCLE('',#234,4.75);
#102=CIRCLE('',#235,4.75);
#103=CIRCLE('',#238,2.75);
#104=CIRCLE('',#239,2.75);
#105=CIRCLE('',#240,3.55);
#106=CIRCLE('',#241,3.55);
#107=CIRCLE('',#244,3.55);
#108=CIRCLE('',#245,3.55);
#109=CIRCLE('',#247,1.675);
#110=CIRCLE('',#249,1.675);
#111=VERTEX_POINT('',#353);
#112=VERTEX_POINT('',#354);
#113=VERTEX_POINT('',#356);
#114=VERTEX_POINT('',#361);
#115=VERTEX_POINT('',#365);
#116=VERTEX_POINT('',#368);
#117=VERTEX_POINT('',#369);
#118=VERTEX_POINT('',#375);
#119=VERTEX_POINT('',#376);
#120=VERTEX_POINT('',#379);
#121=VERTEX_POINT('',#381);
#122=VERTEX_POINT('',#387);
#123=VERTEX_POINT('',#389);
#124=VERTEX_POINT('',#393);
#125=VERTEX_POINT('',#396);
#126=EDGE_CURVE('',#111,#112,#96,.T.);
#127=EDGE_CURVE('',#111,#113,#82,.T.);
#128=EDGE_CURVE('',#113,#113,#97,.T.);
#129=EDGE_CURVE('',#112,#111,#98,.T.);
#130=EDGE_CURVE('',#113,#114,#83,.T.);
#131=EDGE_CURVE('',#114,#114,#99,.T.);
#132=EDGE_CURVE('',#115,#115,#100,.T.);
#133=EDGE_CURVE('',#116,#117,#101,.T.);
#134=EDGE_CURVE('',#117,#116,#102,.T.);
#135=EDGE_CURVE('',#115,#117,#84,.T.);
#136=EDGE_CURVE('',#118,#119,#103,.T.);
#137=EDGE_CURVE('',#119,#118,#104,.T.);
#138=EDGE_CURVE('',#118,#120,#85,.T.);
#139=EDGE_CURVE('',#120,#121,#105,.T.);
#140=EDGE_CURVE('',#121,#120,#106,.T.);
#141=EDGE_CURVE('',#119,#112,#86,.T.);
#142=EDGE_CURVE('',#121,#122,#87,.T.);
#143=EDGE_CURVE('',#123,#122,#107,.T.);
#144=EDGE_CURVE('',#122,#123,#108,.T.);
#145=EDGE_CURVE('',#124,#124,#109,.T.);
#146=EDGE_CURVE('',#125,#125,#110,.T.);
#147=EDGE_CURVE('',#124,#125,#88,.T.);
#148=ORIENTED_EDGE('',*,*,#126,.F.);
#149=ORIENTED_EDGE('',*,*,#127,.T.);
#150=ORIENTED_EDGE('',*,*,#128,.T.);
#151=ORIENTED_EDGE('',*,*,#127,.F.);
#152=ORIENTED_EDGE('',*,*,#129,.F.);
#153=ORIENTED_EDGE('',*,*,#128,.F.);
#154=ORIENTED_EDGE('',*,*,#130,.T.);
#155=ORIENTED_EDGE('',*,*,#131,.T.);
#156=ORIENTED_EDGE('',*,*,#130,.F.);
#157=ORIENTED_EDGE('',*,*,#132,.F.);
#158=ORIENTED_EDGE('',*,*,#131,.F.);
#159=ORIENTED_EDGE('',*,*,#133,.T.);
#160=ORIENTED_EDGE('',*,*,#134,.T.);
#161=ORIENTED_EDGE('',*,*,#132,.T.);
#162=ORIENTED_EDGE('',*,*,#135,.T.);
#163=ORIENTED_EDGE('',*,*,#133,.F.);
#164=ORIENTED_EDGE('',*,*,#134,.F.);
#165=ORIENTED_EDGE('',*,*,#135,.F.);
#166=ORIENTED_EDGE('',*,*,#136,.T.);
#167=ORIENTED_EDGE('',*,*,#137,.T.);
#168=ORIENTED_EDGE('',*,*,#138,.T.);
#169=ORIENTED_EDGE('',*,*,#139,.T.);
#170=ORIENTED_EDGE('',*,*,#140,.T.);
#171=ORIENTED_EDGE('',*,*,#138,.F.);
#172=ORIENTED_EDGE('',*,*,#136,.F.);
#173=ORIENTED_EDGE('',*,*,#137,.F.);
#174=ORIENTED_EDGE('',*,*,#141,.T.);
#175=ORIENTED_EDGE('',*,*,#129,.T.);
#176=ORIENTED_EDGE('',*,*,#126,.T.);
#177=ORIENTED_EDGE('',*,*,#141,.F.);
#178=ORIENTED_EDGE('',*,*,#139,.F.);
#179=ORIENTED_EDGE('',*,*,#140,.F.);
#180=ORIENTED_EDGE('',*,*,#142,.T.);
#181=ORIENTED_EDGE('',*,*,#143,.F.);
#182=ORIENTED_EDGE('',*,*,#144,.F.);
#183=ORIENTED_EDGE('',*,*,#142,.F.);
#184=ORIENTED_EDGE('',*,*,#143,.T.);
#185=ORIENTED_EDGE('',*,*,#144,.T.);
#186=ORIENTED_EDGE('',*,*,#145,.T.);
#187=ORIENTED_EDGE('',*,*,#146,.F.);
#188=ORIENTED_EDGE('',*,*,#145,.F.);
#189=ORIENTED_EDGE('',*,*,#147,.T.);
#190=ORIENTED_EDGE('',*,*,#146,.T.);
#191=ORIENTED_EDGE('',*,*,#147,.F.);
#192=CONICAL_SURFACE('',#225,3.15,0.785398163397449);
#193=CONICAL_SURFACE('',#237,3.15,0.785398163397449);
#194=ADVANCED_FACE('',(#58),#192,.T.);
#195=ADVANCED_FACE('',(#59),#53,.T.);
#196=ADVANCED_FACE('',(#60,#47),#49,.T.);
#197=ADVANCED_FACE('',(#61),#50,.T.);
#198=ADVANCED_FACE('',(#62),#54,.T.);
#199=ADVANCED_FACE('',(#63),#193,.T.);
#200=ADVANCED_FACE('',(#64),#55,.T.);
#201=ADVANCED_FACE('',(#65),#56,.T.);
#202=ADVANCED_FACE('',(#66,#48),#51,.T.);
#203=ADVANCED_FACE('',(#67),#52,.F.);
#204=ADVANCED_FACE('',(#68),#57,.F.);
#205=CLOSED_SHELL('',(#194,#195,#196,#197,#198,#199,#200,#201,#202,#203,
#204));
#206=DERIVED_UNIT_ELEMENT(#208,1.);
#207=DERIVED_UNIT_ELEMENT(#422,3.);
#208=(
MASS_UNIT()
NAMED_UNIT(*)
SI_UNIT($,.GRAM.)
);
#209=DERIVED_UNIT((#206,#207));
#210=MEASURE_REPRESENTATION_ITEM('density measure',
POSITIVE_RATIO_MEASURE(1.),#209);
#211=PROPERTY_DEFINITION_REPRESENTATION(#216,#213);
#212=PROPERTY_DEFINITION_REPRESENTATION(#217,#214);
#213=REPRESENTATION('material name',(#215),#419);
#214=REPRESENTATION('density',(#210),#419);
#215=DESCRIPTIVE_REPRESENTATION_ITEM('Generic','Generic');
#216=PROPERTY_DEFINITION('material property','material name',#429);
#217=PROPERTY_DEFINITION('material property','density of part',#429);
#218=DATE_TIME_ROLE('creation_date');
#219=APPLIED_DATE_AND_TIME_ASSIGNMENT(#220,#218,(#429));
#220=DATE_AND_TIME(#221,#222);
#221=CALENDAR_DATE(2019,2,9);
#222=LOCAL_TIME(23,36,50.,#223);
#223=COORDINATED_UNIVERSAL_TIME_OFFSET(0,0,.BEHIND.);
#224=AXIS2_PLACEMENT_3D('placement',#351,#264,#265);
#225=AXIS2_PLACEMENT_3D('',#352,#266,#267);
#226=AXIS2_PLACEMENT_3D('',#355,#268,#269);
#227=AXIS2_PLACEMENT_3D('',#358,#271,#272);
#228=AXIS2_PLACEMENT_3D('',#359,#273,#274);
#229=AXIS2_PLACEMENT_3D('',#360,#275,#276);
#230=AXIS2_PLACEMENT_3D('',#363,#278,#279);
#231=AXIS2_PLACEMENT_3D('',#364,#280,#281);
#232=AXIS2_PLACEMENT_3D('',#366,#282,#283);
#233=AXIS2_PLACEMENT_3D('',#367,#284,#285);
#234=AXIS2_PLACEMENT_3D('',#370,#286,#287);
#235=AXIS2_PLACEMENT_3D('',#371,#288,#289);
#236=AXIS2_PLACEMENT_3D('',#372,#290,#291);
#237=AXIS2_PLACEMENT_3D('',#374,#293,#294);
#238=AXIS2_PLACEMENT_3D('',#377,#295,#296);
#239=AXIS2_PLACEMENT_3D('',#378,#297,#298);
#240=AXIS2_PLACEMENT_3D('',#382,#300,#301);
#241=AXIS2_PLACEMENT_3D('',#383,#302,#303);
#242=AXIS2_PLACEMENT_3D('',#384,#304,#305);
#243=AXIS2_PLACEMENT_3D('',#386,#307,#308);
#244=AXIS2_PLACEMENT_3D('',#390,#310,#311);
#245=AXIS2_PLACEMENT_3D('',#391,#312,#313);
#246=AXIS2_PLACEMENT_3D('',#392,#314,#315);
#247=AXIS2_PLACEMENT_3D('',#394,#316,#317);
#248=AXIS2_PLACEMENT_3D('',#395,#318,#319);
#249=AXIS2_PLACEMENT_3D('',#397,#320,#321);
#250=AXIS2_PLACEMENT_3D('',#398,#322,#323);
#251=AXIS2_PLACEMENT_3D('view reference',#400,#325,#326);
#252=AXIS2_PLACEMENT_3D('view window',#401,#327,#328);
#253=AXIS2_PLACEMENT_3D('view reference',#403,#329,#330);
#254=AXIS2_PLACEMENT_3D('view window',#404,#331,#332);
#255=AXIS2_PLACEMENT_3D('view reference',#406,#333,#334);
#256=AXIS2_PLACEMENT_3D('view window',#407,#335,#336);
#257=AXIS2_PLACEMENT_3D('view reference',#409,#337,#338);
#258=AXIS2_PLACEMENT_3D('view window',#410,#339,#340);
#259=AXIS2_PLACEMENT_3D('',#412,#341,#342);
#260=AXIS2_PLACEMENT_3D('',#413,#343,#344);
#261=AXIS2_PLACEMENT_3D('',#414,#345,#346);
#262=AXIS2_PLACEMENT_3D('',#415,#347,#348);
#263=AXIS2_PLACEMENT_3D('',#416,#349,#350);
#264=DIRECTION('axis',(0.,0.,1.));
#265=DIRECTION('refdir',(1.,0.,0.));
#266=DIRECTION('center_axis',(0.,0.,-1.));
#267=DIRECTION('ref_axis',(-1.,0.,0.));
#268=DIRECTION('center_axis',(0.,0.,1.));
#269=DIRECTION('ref_axis',(0.77138921583987,-0.636363636363636,0.));
#270=DIRECTION('',(0.707106781186548,8.65956056235494E-17,-0.707106781186547));
#271=DIRECTION('center_axis',(0.,0.,1.));
#272=DIRECTION('ref_axis',(-1.,0.,0.));
#273=DIRECTION('center_axis',(0.,0.,1.));
#274=DIRECTION('ref_axis',(0.77138921583987,-0.636363636363636,0.));
#275=DIRECTION('center_axis',(0.,0.,-1.));
#276=DIRECTION('ref_axis',(-1.,0.,0.));
#277=DIRECTION('',(0.,0.,-1.));
#278=DIRECTION('center_axis',(0.,0.,1.));
#279=DIRECTION('ref_axis',(-1.,0.,0.));
#280=DIRECTION('center_axis',(0.,0.,1.));
#281=DIRECTION('ref_axis',(1.,0.,0.));
#282=DIRECTION('center_axis',(0.,0.,-1.));
#283=DIRECTION('ref_axis',(-1.,0.,0.));
#284=DIRECTION('center_axis',(0.,0.,-1.));
#285=DIRECTION('ref_axis',(-1.,0.,0.));
#286=DIRECTION('center_axis',(0.,0.,-1.));
#287=DIRECTION('ref_axis',(-1.,0.,0.));
#288=DIRECTION('center_axis',(0.,0.,-1.));
#289=DIRECTION('ref_axis',(-1.,0.,0.));
#290=DIRECTION('center_axis',(0.,0.,1.));
#291=DIRECTION('ref_axis',(-1.,0.,0.));
#292=DIRECTION('',(0.,0.,-1.));
#293=DIRECTION('center_axis',(0.,0.,1.));
#294=DIRECTION('ref_axis',(-0.77138921583987,0.636363636363636,0.));
#295=DIRECTION('center_axis',(0.,0.,1.));
#296=DIRECTION('ref_axis',(-0.77138921583987,0.636363636363636,0.));
#297=DIRECTION('center_axis',(0.,0.,1.));
#298=DIRECTION('ref_axis',(-0.77138921583987,0.636363636363636,0.));
#299=DIRECTION('',(0.545454545454545,-0.449977042573258,0.707106781186547));
#300=DIRECTION('center_axis',(0.,0.,-1.));
#301=DIRECTION('ref_axis',(1.,0.,0.));
#302=DIRECTION('center_axis',(0.,0.,-1.));
#303=DIRECTION('ref_axis',(1.,0.,0.));
#304=DIRECTION('center_axis',(0.,0.,1.));
#305=DIRECTION('ref_axis',(0.77138921583987,-0.636363636363636,0.));
#306=DIRECTION('',(0.,0.,-1.));
#307=DIRECTION('center_axis',(0.,0.,-1.));
#308=DIRECTION('ref_axis',(1.,0.,0.));
#309=DIRECTION('',(0.,0.,1.));
#310=DIRECTION('center_axis',(0.,0.,1.));
#311=DIRECTION('ref_axis',(1.,0.,0.));
#312=DIRECTION('center_axis',(0.,0.,1.));
#313=DIRECTION('ref_axis',(1.,0.,0.));
#314=DIRECTION('center_axis',(0.,0.,1.));
#315=DIRECTION('ref_axis',(1.,0.,0.));
#316=DIRECTION('center_axis',(0.,0.,-1.));
#317=DIRECTION('ref_axis',(-1.,0.,0.));
#318=DIRECTION('center_axis',(0.,0.,-1.));
#319=DIRECTION('ref_axis',(-1.,0.,0.));
#320=DIRECTION('center_axis',(0.,0.,-1.));
#321=DIRECTION('ref_axis',(-1.,0.,0.));
#322=DIRECTION('center_axis',(0.,0.,1.));
#323=DIRECTION('ref_axis',(-1.,0.,0.));
#324=DIRECTION('',(0.,0.,-1.));
#325=DIRECTION('center_axis',(-0.577350269189626,0.577350269189626,-0.577350269189626));
#326=DIRECTION('ref_axis',(-0.707106781186548,-0.707106781186548,0.));
#327=DIRECTION('center_axis',(0.,0.,1.));
#328=DIRECTION('ref_axis',(1.,0.,0.));
#329=DIRECTION('center_axis',(-2.22044604925031E-16,0.,-1.));
#330=DIRECTION('ref_axis',(-1.,0.,2.22044604925031E-16));
#331=DIRECTION('center_axis',(0.,0.,1.));
#332=DIRECTION('ref_axis',(1.,0.,0.));
#333=DIRECTION('center_axis',(0.,-1.,0.));
#334=DIRECTION('ref_axis',(-1.,0.,0.));
#335=DIRECTION('center_axis',(0.,0.,1.));
#336=DIRECTION('ref_axis',(1.,0.,0.));
#337=DIRECTION('center_axis',(-1.,0.,0.));
#338=DIRECTION('ref_axis',(0.,0.,1.));
#339=DIRECTION('center_axis',(0.,0.,1.));
#340=DIRECTION('ref_axis',(1.,0.,0.));
#341=DIRECTION('center_axis',(0.,0.,1.));
#342=DIRECTION('ref_axis',(1.,0.,0.));
#343=DIRECTION('center_axis',(0.,0.,1.));
#344=DIRECTION('ref_axis',(1.,0.,0.));
#345=DIRECTION('center_axis',(0.,0.,1.));
#346=DIRECTION('ref_axis',(1.,0.,0.));
#347=DIRECTION('center_axis',(0.,0.,1.));
#348=DIRECTION('ref_axis',(1.,0.,0.));
#349=DIRECTION('center_axis',(0.,0.,1.));
#350=DIRECTION('ref_axis',(1.,0.,0.));
#351=CARTESIAN_POINT('',(0.,0.,0.));
#352=CARTESIAN_POINT('Origin',(5.55111512312578E-16,-1.38777878078145E-16,
8.8));
#353=CARTESIAN_POINT('',(2.75,3.36777869765522E-16,9.2));
#354=CARTESIAN_POINT('',(-2.12132034355964,1.75,9.2));
#355=CARTESIAN_POINT('Origin',(0.,0.,9.2));
#356=CARTESIAN_POINT('',(3.55,2.95971735619166E-16,8.4));
#357=CARTESIAN_POINT('',(3.15,2.46985863653272E-16,8.8));
#358=CARTESIAN_POINT('Origin',(5.55111512312578E-16,-1.38777878078145E-16,
8.4));
#359=CARTESIAN_POINT('Origin',(0.,0.,9.2));
#360=CARTESIAN_POINT('Origin',(5.55111512312578E-16,-1.38777878078145E-16,
9.2));
#361=CARTESIAN_POINT('',(3.55,2.95971735619166E-16,6.2));
#362=CARTESIAN_POINT('',(3.55,-5.73527491775455E-16,9.2));
#363=CARTESIAN_POINT('Origin',(5.55111512312578E-16,-1.38777878078145E-16,
6.2));
#364=CARTESIAN_POINT('Origin',(5.55111512312578E-16,0.,6.2));
#365=CARTESIAN_POINT('',(4.75,-1.38777878078145E-16,6.2));
#366=CARTESIAN_POINT('Origin',(0.,0.,6.2));
#367=CARTESIAN_POINT('Origin',(5.55111512312578E-16,-1.,-1.));
#368=CARTESIAN_POINT('',(4.61743796960945,-1.1143458156286,-1.));
#369=CARTESIAN_POINT('',(4.75,5.81707229594993E-16,-1.));
#370=CARTESIAN_POINT('Origin',(0.,0.,-1.));
#371=CARTESIAN_POINT('Origin',(0.,0.,-1.));
#372=CARTESIAN_POINT('Origin',(0.,0.,-1.));
#373=CARTESIAN_POINT('',(4.75,5.81707229594993E-16,-1.));
#374=CARTESIAN_POINT('Origin',(0.,0.,12.02));
#375=CARTESIAN_POINT('',(2.12132034355964,-1.75,11.62));
#376=CARTESIAN_POINT('',(-2.12132034355964,1.75,11.62));
#377=CARTESIAN_POINT('Origin',(0.,0.,11.62));
#378=CARTESIAN_POINT('Origin',(0.,0.,11.62));
#379=CARTESIAN_POINT('',(2.73843171623154,-2.25909090909091,12.42));
#380=CARTESIAN_POINT('',(2.42987602989559,-2.00454545454546,12.02));
#381=CARTESIAN_POINT('',(-3.55,4.3474961369731E-16,12.42));
#382=CARTESIAN_POINT('Origin',(0.,0.,12.42));
#383=CARTESIAN_POINT('Origin',(0.,0.,12.42));
#384=CARTESIAN_POINT('Origin',(0.,0.,0.));
#385=CARTESIAN_POINT('',(-2.12132034355964,1.75,0.));
#386=CARTESIAN_POINT('Origin',(0.,0.,13.42));
#387=CARTESIAN_POINT('',(-3.55,4.3474961369731E-16,13.42));
#388=CARTESIAN_POINT('',(-3.55,4.3474961369731E-16,13.42));
#389=CARTESIAN_POINT('',(3.55,0.,13.42));
#390=CARTESIAN_POINT('Origin',(0.,0.,13.42));
#391=CARTESIAN_POINT('Origin',(0.,0.,13.42));
#392=CARTESIAN_POINT('Origin',(0.,0.,13.42));
#393=CARTESIAN_POINT('',(1.675,2.77555756156289E-16,13.42));
#394=CARTESIAN_POINT('Origin',(0.,0.,13.42));
#395=CARTESIAN_POINT('Origin',(5.55111512312578E-16,-1.,0.));
#396=CARTESIAN_POINT('',(1.675,2.05128338857182E-16,0.));
#397=CARTESIAN_POINT('Origin',(0.,0.,0.));
#398=CARTESIAN_POINT('Origin',(0.,0.,0.));
#399=CARTESIAN_POINT('',(1.675,2.05128338857182E-16,0.));
#400=CARTESIAN_POINT('Origin',(9.80776221726431,-9.80776221726431,9.80776221726431));
#401=CARTESIAN_POINT('Origin',(0.,0.,16.9875424688562));
#402=CARTESIAN_POINT('',(0.,0.,0.));
#403=CARTESIAN_POINT('Origin',(2.61331282407732E-14,0.,117.693146607172));
#404=CARTESIAN_POINT('Origin',(0.,0.,117.693146607172));
#405=CARTESIAN_POINT('',(0.,0.,0.));
#406=CARTESIAN_POINT('Origin',(0.,117.693146607172,0.));
#407=CARTESIAN_POINT('Origin',(0.,0.,117.693146607172));
#408=CARTESIAN_POINT('',(0.,0.,0.));
#409=CARTESIAN_POINT('Origin',(117.693146607172,0.,0.));
#410=CARTESIAN_POINT('Origin',(0.,0.,117.693146607172));
#411=CARTESIAN_POINT('',(0.,0.,0.));
#412=CARTESIAN_POINT('Origin',(0.,0.,0.));
#413=CARTESIAN_POINT('Origin',(0.,0.,0.));
#414=CARTESIAN_POINT('Origin',(0.,0.,0.));
#415=CARTESIAN_POINT('Origin',(0.,0.,0.));
#416=CARTESIAN_POINT('Origin',(0.,0.,0.));
#417=UNCERTAINTY_MEASURE_WITH_UNIT(LENGTH_MEASURE(0.01),#421,
'DISTANCE_ACCURACY_VALUE',
'Maximum model space distance between geometric entities at asserted c
onnectivities');
#418=UNCERTAINTY_MEASURE_WITH_UNIT(LENGTH_MEASURE(0.01),#421,
'DISTANCE_ACCURACY_VALUE',
'Maximum model space distance between geometric entities at asserted c
onnectivities');
#419=(
GEOMETRIC_REPRESENTATION_CONTEXT(3)
GLOBAL_UNCERTAINTY_ASSIGNED_CONTEXT((#417))
GLOBAL_UNIT_ASSIGNED_CONTEXT((#421,#423,#424))
REPRESENTATION_CONTEXT('','3D')
);
#420=(
GEOMETRIC_REPRESENTATION_CONTEXT(3)
GLOBAL_UNCERTAINTY_ASSIGNED_CONTEXT((#418))
GLOBAL_UNIT_ASSIGNED_CONTEXT((#421,#423,#424))
REPRESENTATION_CONTEXT('','3D')
);
#421=(
LENGTH_UNIT()
NAMED_UNIT(*)
SI_UNIT(.MILLI.,.METRE.)
);
#422=(
LENGTH_UNIT()
NAMED_UNIT(*)
SI_UNIT(.CENTI.,.METRE.)
);
#423=(
NAMED_UNIT(*)
PLANE_ANGLE_UNIT()
SI_UNIT($,.RADIAN.)
);
#424=(
NAMED_UNIT(*)
SI_UNIT($,.STERADIAN.)
SOLID_ANGLE_UNIT()
);
#425=SHAPE_DEFINITION_REPRESENTATION(#426,#427);
#426=PRODUCT_DEFINITION_SHAPE('',$,#429);
#427=SHAPE_REPRESENTATION('',(#224),#419);
#428=PRODUCT_DEFINITION_CONTEXT('part definition',#433,'design');
#429=PRODUCT_DEFINITION('ScrollWheelHolder','ScrollWheelHolder',#430,#428);
#430=PRODUCT_DEFINITION_FORMATION('',$,#435);
#431=PRODUCT_RELATED_PRODUCT_CATEGORY('ScrollWheelHolder',
'ScrollWheelHolder',(#435));
#432=APPLICATION_PROTOCOL_DEFINITION('international standard',
'ap242_managed_model_based_3d_engineering',2011,#433);
#433=APPLICATION_CONTEXT('Managed model based 3d engineering');
#434=PRODUCT_CONTEXT('part definition',#433,'mechanical');
#435=PRODUCT('ScrollWheelHolder','ScrollWheelHolder',$,(#434));
#436=PRESENTATION_STYLE_ASSIGNMENT((#438));
#437=PRESENTATION_STYLE_ASSIGNMENT((NULL_STYLE(.NULL.)));
#438=SURFACE_STYLE_USAGE(.BOTH.,#441);
#439=SURFACE_STYLE_RENDERING_WITH_PROPERTIES($,#445,(#440));
#440=SURFACE_STYLE_TRANSPARENT(0.);
#441=SURFACE_SIDE_STYLE('',(#442,#439));
#442=SURFACE_STYLE_FILL_AREA(#443);
#443=FILL_AREA_STYLE('',(#444));
#444=FILL_AREA_STYLE_COLOUR('',#445);
#445=COLOUR_RGB('',0.749019607843137,0.749019607843137,0.749019607843137);
ENDSEC;
END-ISO-10303-21;
